Song name
# A B C D E F G H I J K L M N O P Q R S T U V W X Y Z

Katharsis - 666 Hohelied Der Wiedererweckung tab

    Band:  Katharsis
    Album: 666
    Song:  666 (Hohelied Der Wiedererweckung)
    Copyright (c)  Sombre Records
    Version 1.0  - 17/10/2007
    Transcribed By: Elathen
    Email:          ningalia87@yahoo.com
 
.  - palm mute           /  - slide up to
\  - slide down to       ~  - vibrato
h  - hammer on           b  - Bend
p  - pull off            Suffixes for bend
t  - tap                 f  - full bend    h - half bend
ph - pinched harmonic    q  - quarter bend t - tap bend
*  - see comment         ^  - Hold bend    r release bend
x  - Stuccatto           ~  - vibrato bend
,  - slight palm mute    () - ghost note, sustained note
"  - tremolo note        <> - Trill

Tuning E A D G B E

  
Riff 1
|-----------------------------------------------------|
|-----------------------------------------------------| 
|----------------------------------------------6"-----| 
|----6"----9"---8"-----6"----9"----8"----7"----7"-----|  
|-----------------------------------------------------| 
|-----------------------------------------------------|

Riff 2
|-----------------------------------------------|
|-----------------------------------------------| 
|-----------------------------------------------| 
|-----------------------------------------------|  
|---6"-------9"----6"----8"------5"-----7"---5"-| 
|-----------------------------------------------|

Break 
|---------------|
|---------------| 
|---------------| 
|---3-----------|  
|---1-----------| 
|---------------|

Riff 3
|------------------------------------------|
|------------------------------------------| 
|--------------------------------------2"--| 
|-3"---4"--3"-----4"---3"--4"--3"------3"--|  
|-------------6"-------------------6"------| 
|------------------------------------------|

Riff 4
|--------------------------------------------------------------| 
|--------------------------------------------------------------| 
|--------------------------------------------------------------| 
|----6"-----9"-------------------6"-----9"---------------------|
|----4"-----7"------7"----4"-----4"-----7"------4"------7"-----| 
|-------------------9"----5"--------------------5"------8"-----|

Riff 5
|---------------------------------------------------------------|
|---------------------------------------------------------------|
|---------------------------------------------------------------|  
|---6"----9"-----10"----9"---8"------6"----9"-------------------| 
|---4"----7"------8"----7"---6"------4"----7"-------------------|
|---------------------------------------------------------------|

Riff 6
|--------------------------------------|
|--------------------------------------| 
|--------------------------------------| 
|--------------------------------------|  
|--6----5---6----5---6---7----8--------| 
|--4----3---4----3---4---5----6--------|

http://www.myspace.com/666katharsis666
Tap to rate this tab
# A B C D E F G H I J K L M N O P Q R S T U V W X Y Z