Song name
# A B C D E F G H I J K L M N O P Q R S T U V W X Y Z

Kathleen Edwards - Change The Sheets tab

Artist: Kathleen Edwards
Song: Change the Sheets
Album: Wapusk
Tuning: Standard

Reference Video: http://www.youtube.com/watch?v=sw12l-3Ql2g 

Intro

e |--2---0----3---------|
B |--3---3----3---------|
G |--2---2----0---------|
D |--0---2----0---------|
A |--0---0----x---------| 	
E |--x---x----3---------|

Lead Guitar

e |---------------------|
B |---------------------|
G |--7---11---6--7---4--| 
D |---------------------|
A |---------------------| 	
E |---------------------|

e |--------------------------|
B |----10---b12---12---10----|
G |--7--------------------9--|
D |--------------------------|
A |--------------------------| 	
E |--------------------------|

Verse 1


e |--2---0----3---------|
B |--3---3----3---------|
G |--2---2----0---------|
D |--0---2----0---------|
A |--0---0----x---------| 	
E |--x---x----3---------|

My love took a ride on a red-eye plane
Going home
And we're never gonna feel the same

Chorus 

e |--2----2----3-----------|
B |--3----3----3-----------|
G |--4----2----0-----------|
D |--4----0----0-----------|
A |--2----0----x-----------| 	
E |--x----x----3-----------|

Change this feeling under my feet
Change the sheets and then change me

e |--2---0----3---------|
B |--3---3----3---------|
G |--2---2----0---------|
D |--0---2----0---------|
A |--0---0----x---------| 	
E |--x---x----3---------|

Lead Guitar

e |---------------------|
B |---------------------|
G |--7---11---6--7---4--| 
D |---------------------|
A |---------------------| 	
E |---------------------|

e |--------------------------|
B |----10---b12---12---10----|
G |--7--------------------9--|
D |--------------------------|
A |--------------------------| 	
E |--------------------------|

Verse 2

e |--2---0----3---------|
B |--3---3----3---------|
G |--2---2----0---------|
D |--0---2----0---------|
A |--0---0----x---------| 	
E |--x---x----3---------|

Lead Guitar

e |---------------------|
B |---------------------|
G |--7/9---11---6-------|
D |---------------------|
A |---------------------| 	
E |---------------------|

My love is a stockpile of broken wills
Like Santa Fe, margaritas and sleeping pills
I wanna lie in the cracks of this lonely road
I can fill in the blanks for every time you [...]
Here is the truth I swear it used to be fun
Go ahead run

Chorus 

Verse 3

e |--2---0----3---------|
B |--3---3----3---------|
G |--2---2----0---------|
D |--0---2----0---------|
A |--0---0----x---------| 	
E |--x---x----3---------|

e |---------------------|
B |---------------------|
G |---2---b4--4---2-----|
D |-0----------------2--|
A |---------------------| 	
E |---------------------|

I wanna lie in the cracks of this lonely road
I can fill in the blanks for every time you [...]
Here is the truth I swear I was fun
Go ahead run

Chorus 

e |--2----2----3-----------|
B |--3----3----3-----------|
G |--4----2----0-----------|
D |--4----0----0-----------|
A |--2----0----x-----------| 	
E |--x----x----3-----------|


Change this feeling under my feet
Would you change the sheets and then change me
Change this feeling under my feet
'Cause here is the truth I swear I was fun
Go ahead run
Go ahead run

Outro

e |---------------------------|
B |---------------------------|
G |--7---11---6--7---4--6--7--| 
D |---------------------------|
A |---------------------------| 	
E |---------------------------|




Tap to rate this tab
# A B C D E F G H I J K L M N O P Q R S T U V W X Y Z