Song name
# A B C D E F G H I J K L M N O P Q R S T U V W X Y Z

Kathleen Edwards - Empty Threat tab

Artist: Kathleen Edwards
Song: Empty Threat
Album: Voyageur
Tuning: Standard (Capo 3rd fret)

Video Reference(s): 

http://www.youtube.com/watch?v=m8yijyhLHB4&feature=related

& 

http://www.youtube.com/watch?v=3VoZMyCs6wg&feature=related


Intro

e |--0-----0--------------|
B |--0-----0--------------|
G |--0-----0--------------|
D |--0-----x--------------|
A |--x-----2--------------|             
E |--3-----0--------------|

Verse 1

e |--0----0-------0----0--------|
B |--0----0-------1----0--------|
G |--0----0-(x2)--0----0--(x2)--|
D |--0----2-------2----2--------|
A |--x----2-------3----3--------|       
E |--3----0-------x----x--------|

The hottest days of the summer
They brought us here together
You know it's true
But this cold now it's getting warmer
Maybe come September I will feel brand new

Chorus

e |--0----0-------0----0--------|
B |--0----0-------1----0--------|
G |--0----0-(x2)--0----0--(x2)--|
D |--0----2-------2----2--------|
A |--x----2-------3----3--------|       
E |--3----0-------x----x--------|

I'm moving to America,
Moving to America,
Moving to America,
It's an empty threat

Interlude

e |--0-----0--------------|
B |--0-----0--------------|
G |--0-----0--------------|
D |--0-----x--------------|
A |--x-----2--------------|             
E |--3-----0--------------|

Verse 2

e |--0----0-------0----0--------|
B |--0----0-------1----0--------|
G |--0----0-(x2)--0----0--(x2)--|
D |--0----2-------2----2--------|
A |--x----2-------3----3--------|       
E |--3----0-------x----x--------|

In the city I once would never
I'm learning to say never never never ever
'Cause now I'm its favorite flower
I'm blooming through to the concrete cracks of this condo tower

Chorus (x2)

Then...

e |--2-------------------|
B |--3-------------------|
G |--2-------------------|
D |--0-------------------|
A |--0-------------------|      
E |--x-------------------|

e |--5/7--10\7--5/7-----|
B |---------------------|
G |---------------------|
D |---------------------|
A |---------------------|       
E |---------------------|


Bridge

e |--0---2---0---0---0---0---2--|
B |--1---3---1---0---1---0---3--|
G |--0---2---0---0---0---0---2--|
D |--2---0---2---2---2---2---0--|
A |--3---0---3---2---3---2---0--|       
E |--x---x---x---0---x---0---x--|

Itís over this course of ours
What might have been thunder showers
I hit that head until it bled
I miss you sick goddammit

Chorus (x2)

Outro

e |--0-----0--------------|
B |--0-----0--------------|
G |--0-----0--------------|
D |--0-----x--------------|
A |--x-----2--------------|     
E |--3-----0--------------|

The hottest days of the summer
They brought us here together
You know it's true
Tap to rate this tab
# A B C D E F G H I J K L M N O P Q R S T U V W X Y Z