Song name
# A B C D E F G H I J K L M N O P Q R S T U V W X Y Z

Kathryn Scott - Hungry Falling On My Knees tab

-------------------------------------------------------------------------------
                  HUNGRY (FALLING ON MY KNEES) - Kathryn Scott
-------------------------------------------------------------------------------
Tabbed by: JP
Key: C (same as "Chords" by voodoo_doll85)
Tuning: Standard
Album: I Could Sing of Your Love Forever, Vol. 2 (Live compilation)

Look it up on iTunes and get it to listen to the solo, it's an amazing song anyways.
Please note that the solo is only in the live version of the song.

Medium Distortion:
e|-----8--7-------------------8--7-------------------------------------------|
B|--8--------8-----10------8--------8----------------------------------------|
G|--------------9--9~------------------9--7b9-r7---5-7--10b12-r10-9----------|
D|-----------------7---------------------------------------------------------|
A|---------------------------------------------------------------------------|
E|---------------------------------------------------------------------------|

e|---------------------------------------------------------------------------|
B|-10p8-8h10-10/13-13----15p13-13h15h17-17p15p13-13h15-15p13-13-13-----------|
G|--------------------12-------------------------------------------12--------|
D|---------------------------------------------------------------------------|
A|---------------------------------------------------------------------------|
E|---------------------------------------------------------------------------|

e|--------10-------------------|
B|-13-13-------13--------------|
G|-----------------12~--12~----|
D|-----------------------------|
A|-----------------------------|
E|-----------------------------|

Hope this helps!


************************************

| /   slide up
| \   slide down
| h   hammer-on
| p   pull-off
| ~   vibrato
| +   harmonic
| x   Mute note
| b   Bend
| pb  Pre-bend
| br  Bend release
| pbr Pre-bend release
| brb Bend release bend

************************************
Tap to rate this tab
 
# A B C D E F G H I J K L M N O P Q R S T U V W X Y Z