Song name
# A B C D E F G H I J K L M N O P Q R S T U V W X Y Z

Kathryn Williams - Jasmine Hoop tab

----------------------------------------------------------------------------
			     JASMINE HOOP - Kathryn Williams
----------------------------------------------------------------------------
Tabbed by: sunshwr
Email: sunshwr@gmail.com

Tuning: Standard
No capo

This is the little guitar solo played in the middle of the song.
I don't know the chords for the rest, but would love to find out! 
Please contribute if you know! :)

e-----------------------------------------------|
B-----------------------------------------------|
G-0---------------------------0-2-0-2-0---------|
D---3-2-0-2-3-2---------0-2-3-----------3-2-0---|
A---------------3-0-----------------------------|
E-------------------3---------------------------|

e-----------------------------------------------|
B---------------------------------1-------------|
G-0---------------------------0-2---2-0---------|
D---3-2-0-2-3-2-----0---0-2-3-----------3-2-0---|
A---------------3-0-----------------------------|
E-----------------------------------------------|

e-----------------------------------------------|
B---------------------------------1-------------|
G-0---------------------------0-2---2-0---------|
D---3-2-3-2-0-2-----0---0-2-3-----------3-2-0---|
A---------------3-0-----------------------------|
E-----------------------------------------------|

e-----------------------------------------------|
B-----------------------------------------------|
G-0---------------------------------------------|
D---3-2-3-2-0-2---------------------------------|
A-----------------------------------------------|
E-----------------------------------------------|
Tap to rate this tab
# A B C D E F G H I J K L M N O P Q R S T U V W X Y Z