Song name
# A B C D E F G H I J K L M N O P Q R S T U V W X Y Z

Katie Melua - Mary Pickford tab

E----------------9---9h10h9-----7------5---------------------------------------------|
B----------10------------------------------------------------------------------------|
G-------9----------------------------------------------------------------------------|
D------------------------------------------------------------------------------------|
A------------------------------------------------------------------------------------|
E------------------------------------------------------------------------------------|


E--------5---7----9----10---9---7---5----4-----4---4h54------------------------------------------|
B-----------------------------------------------------------------7---5--------------------------|
G--------------------------------------------------------------------------6--7--6---------------|
D--------------------------------------------------------------------------------------7---7---7-|
A------------------------------------------------------------------------------------------------|
E------------------------------------------------------------------------------------------------|

E----------------9---9h10h9-----7------5----------------------------------------------|
B----------10-------------------------------------------------------------------------|
G-------9-----------------------------------------------------------------------------|
D-------------------------------------------------------------------------------------|
A-------------------------------------------------------------------------------------|
E-------------------------------------------------------------------------------------|

E---------7----9-----14---14---12----------------------12---14----12----------------------|
B-----------------------------------------15---15---------------------------10---9--10----|
G-----------------------------------------------------------------------------------------|
D-----------------------------------------------------------------------------------------|
A-----------------------------------------------------------------------------------------|
E-----------------------------------------------------------------------------------------|

E-----------------------------------------------------------------------------------------|
B-----------------------------------------------------------------------------------------|
G---------6----7---6----------------------------------------------------------------------|
D----------------------------7----7-------------------------------------------------------|
A-----------------------------------------------------------------------------------------|
E-----------------------------------------------------------------------------------------|
Tap to rate this tab
# A B C D E F G H I J K L M N O P Q R S T U V W X Y Z