Song name
# A B C D E F G H I J K L M N O P Q R S T U V W X Y Z

Katie Melua - Lucy In The Sky With Diamonds tab

-----------------------------------------------------------------------------
		Lucy In The Sky With Diamonds – Katie Melua
-----------------------------------------------------------------------------
Tabbed by: lost-rose
Email: lost-rose@hotmail.de

Tuning: standart

You should play it with the fingers, that sounds better!
First the bass line after the bass 2 times the chord, 
hopefully you know what I try to say.
So it's my first tab, so it's possible that there are some mistakes, 
let me know if something isn't right....


INTRO 2x
       A         A/G        A/F#         A/F
e|----x--x-------x--x-------x--x--------x--x--------------------------------|
B|----2--2-------2--2-------2--2--------2--2--------------------------------|
G|----2--2-------2--2-------2--2--------2--2--------------------------------|
D|----2--2-------2--2-------2--2--------2--2--------------------------------|
A|-0--x--x-------x--x-------x--x--------x--x--------------------------------|
E|----x--x----3--x--x----2--x--x-----1--x--x--------------------------------|

COURSE
       A         A/G         A/F#       A/F        A          A/G       A/F#
e|----x--x-------x--x-------x--x-------x--x-------x--x-------x--x-------x--x|
B|----2--2-------2--2-------2--2-------2--2-------2--2-------2--2-------2--2|
G|----2--2-------2--2-------2--2-------2--2-------2--2-------2--2-------2--2|
D|----2--2-------2--2-------2--2-------2--2-------2--2-------2--2-------2--2|
A|-0--x--x-------x--x-------x--x-------x--x-------x--x-------x--x-------x--x|
E|----x--x----3--x--x----2--x--x----1--x--x----0--x--x----3--x--x----2--x--x|

    F#moll7     F#moll7     F#moll7    F#moll7     A          A/G       A/F#
e|----x--x-------0--0-------x--x-------3--3-------x--x-------x--x-------x--x|
B|----1--1-------1--1-------1--1-------1--1-------2--2-------2--2-------2--2|
G|----2--2-------2--2-------2--2-------2--2-------2--2-------2--2-------2--2|
D|----2--2-------x--x-------2--2-------x--x-------2--2-------2--2-------2--2|
A|----x--x-------x--x-------x--x-------x--x----0--x--x-------x--x-------x--x|
E|-1--x--x----1--x--x----1--x--x----1--x--x-------x--x----3--x--x----2--x—-x|


       A/F         A        A/G        A/F#        A/C#     Dmoll     Dmoll/C
e|----x--x-------x--x-------x--x-------x--x-------x--x-------1--1-------1—-1|
B|----2--2-------2--2-------2--2-------2--2-------2--2-------3--3-------3—-3|
G|----2--2-------2--2-------2--2-------2--2-------2--2-------2--2-------2—-2|
D|----2--2-------2--2-------2--2-------2--2-------2—-2----0--x--x-------x—-x|
A|----x--x----0--x--x-------x--x-------x--x----4--x--x-------x--x----3--x—-x|
E|-1--x--x-------x--x----3--x--x----2--x--x-------x--x-------x--x-------x—-x|

      Bb           Bb         Bb/C      Bb/C        Bb/F       Bb/F      Bb
e|----x--x-------x--x-------x--x-------x--x-------x--x-------x--x-------x--x|
B|----3--3-------3--3-------3--3-------3--3-------3--3-------3--3-------3--3|
G|----3--3-------3--3-------3--3-------3--3-------3--3-------3--3-------3--3|
D|----3--3-------3--3-------3--3-------3--3-------3--3-------3--3-------3--3|
A|-1--x--x----1--x--x----3--x--x----3--x--x-------x--x-------x--x----1--x--x|
E|----x--x-------x--x-------x--x-------x--x----1--x--x----1--x--x-------x—-x|

        Bb      Gmoll7     Gmoll7        D       Dsus2      Dsus4         D
e|----x--x-------x--x-------x--x-------2--2-------0--0-------3--3-------2--2|
B|----3--3-------3--3-------3--3-------3--3-------3--3-------3--3-------3--3|
G|----3--3-------3--3-------3--3-------2--2-------2--2-------2--2-------2--2|
D|----3--3-------3--3-------3--3----0--x--x----0--x--x----0--x--x----0--x--x|
A|-1--x--x----3--x--x----3--x--x-------x--x-------x--x-------x--x-------x--x|
E|----x--x-------x--x-------x--x-------x--x-------x--x-------x--x-------x--x|


REFRAIN 3x
       G         Cmaj9      D     Dsus2   D   Dsus2
e|----x--x-------x--x-------2------0------2-----0---------------------------|
B|----0--0-------3--3-------3------3------3-----3---------------------------|
G|----0--0-------0--0-------2------2------2-----2---------------------------|
D|----0--0-------2--2----0--x------x------x-----x---------------------------|
A|----x--x----3--x--x-------x------x------x-----x---------------------------|
E|-3--x--x-------x--x-------x------x------x-----x---------------------------|

OUTRO

After Dmoll and Dmoll/C in the COURSE you play the same chords as in the REFRAIN:

G – Cmaj9 – D – D – D - D

You could also take again Dsus2 or Dsus4, you can do as you like!

Hope you’ll enjoy it, have fun with it :)

| /  slide up
| \  slide down
| h  hammer-on
| p  pull-off
| ~  vibrato
| +  harmonic
| x  Mute note
=============================================================================
Tap to rate this tab
# A B C D E F G H I J K L M N O P Q R S T U V W X Y Z