Song name
# A B C D E F G H I J K L M N O P Q R S T U V W X Y Z

Katie Melua - Mary Pickford tab

Mary Pickford
by
Katie Melua

Tabbed by Mark Jones, 13 March 2014.

 A
-0-----------------------------------------|
-2-----------------------------------------|
-2------2---2---2---2---2---2---2---2---2--|
-2--2-4---2---4---4---4---4---4---4---4----|   x2
-0-----------------------------------------|
-------------------------------------------|


A
Mary Pickford used to eat roses
D                            E                   A
Thought that they'd make her beautiful and they did

 A                     One supposes

-0-----------------------------------------|
-2-----------------------------------------|
-2------2---2---2---2---2---2---2---2---2--|
-2--2-4---2---4---4---4---4---4---4---4----|
-0-----------------------------------------|
-------------------------------------------|

 A    Douglas Fairbanks, he was so handsome
-0-----------------------------------------|
-2-----------------------------------------|
-2------2---2---2---2---2---2---2---2---2--|
-2--2-4---2---4---4---4---4---4---4---4----|
-0-----------------------------------------|
-------------------------------------------|

D
He wore a moustache
E                      A
Must-a had much cash, too



 A             Worth a king's ransom
-0-----------------------------------------|
-2-----------------------------------------|
-2------2---2---2---2---2---2---2---2---2--|
-2--2-4---2---4---4---4---4---4---4---4----|
-0-----------------------------------------|
-------------------------------------------|


Charlie Chaplin, he was invited
Em       D       D/A        A
---------------------------------|
-8-------7-------7----------5----|
---------------------------------|
---------------------------------|
-7-------5-------5----------4----|
---------------------------------|


When these artists became united
Bm         F#m      Em        A
---------------------------------|-----------------------|
-3---------2--------0------------|-14-15-14-12-10-9-7-7--|
---2---------2--------0---0----2-|-----------------------|
---------------------------------|-----------------------|
-2------------------2---2------0-|-12-12-12-11-9--7-5-5--|
-----------2---------------------|-----------------------|



When these artists became united
Bm7        F#m      D     D/A  A
------------------------------------|------------------------|
-7---------5--------7-----3---3---2-|-2--3--2-7-5-7-9-10-10--|
----------------------------2---2---|------------------------|
--------------------------0---0-----|----0-------------------|
-5---------4--------5-------------0-|-0-----0-5-5-5-7--9--7--|
------------------------------------|------------------------|

    David Griffith worked as an extra
 A
-0-----------------------------------------|
-2-----------------------------------------|
-2------2---2---2---2---2---2---2---2---2--|
-2--2-4---2---4---4---4---4---4---4---4----|
-0-----------------------------------------|
-------------------------------------------|

D
Then as a stagehand
E                  A
Until they let him be

 A                       a director
-0-----------------------------------------|
-2-----------------------------------------|
-2------2---2---2---2---2---2---2---2---2--|
-2--2-4---2---4---4---4---4---4---4---4----|
-0-----------------------------------------|
-------------------------------------------|


    Dave was brave, a mover and shaker
-0-----------------------------------------|
-2-----------------------------------------|
-2------2---2---2---2---2---2---2---2---2--|
-2--2-4---2---4---4---4---4---4---4---4----|
-0-----------------------------------------|
-------------------------------------------|

  D
A true pioneer
E                    A
He seemed to show no fear

                      A real film maker
-0-----------------------------------------|
-2-----------------------------------------|
-2------2---2---2---2---2---2---2---2---2--|
-2--2-4---2---4---4---4---4---4---4---4----|
-0-----------------------------------------|
-------------------------------------------|


Just like Chaplin, he was invited
Em         D       D/A        A
-----------------------------------|
-8---------7-------7----------5----|
-----------------------------------|
-----------------------------------|
-7---------5-------5----------4----|
-----------------------------------|


When these artists became united
Bm         F#m      Em        A
---------------------------------|-----------------------|
-3---------2--------0------------|-14-15-14-12-10-9-7-7--|
---2---------2--------0---0----2-|-----------------------|
---------------------------------|-----------------------|
-2------------------2---2------0-|-12-12-12-11-9--7-5-5--|
-----------2---------------------|-----------------------|


When these artists became united

Bm7        F#m      D     D/A     A
------------------------------------|------------------------|
-7---------5--------7-----3---3---2-|-2--3--2-7-5-7-9-10-10--|
----------------------------2---2---|------------------------|
--------------------------0---0-----|----0-------------------|
-5---------4--------5-------------0-|-0-----0-5-5-5-7--9--7--|
------------------------------------|------------------------|


-0-----------------------------------------|
-2-----------------------------------------|
-2------2---2---2---2---2---2---2---2---2--|
-2--2-4---2---4---4---4---4---4---4---4----|
-0-----------------------------------------|
-------------------------------------------|


C    F         G     C
They tied the knot together
Am        Dm              G
Groom and bride couldn't hide their pleasure
C     F       G         C
They tried to pick fair weather
     Am   Dm           Em
But love died, didn't last forever


|A| |A| |D| |E| |A| |A|

|A| |A| |D| |E| |A| |A|


A
Mary Pickford used to eat roses
D                            E                   A
Thought that they'd make her beautiful and they did

One supposes


A
Douglas Fairbanks, he was so handsome
D
He wore a moustache
E                      A
Must-a had much cash, too

Worth a king's ransom


Em       D       D/A       A
Charlie Chaplin, he was invited
Bm         F#m      Em        A
When these artists became united
Bm7        F#m      D     D/A  A
When these artists became united
Bm7        F#m      D     D/A  A
When these artists became united
Tap to rate this tab
# A B C D E F G H I J K L M N O P Q R S T U V W X Y Z