Song name
# A B C D E F G H I J K L M N O P Q R S T U V W X Y Z

Katie Sewell - My Little Rhythm tab

Heya people this is the guitar tab for My Little Rhythm by Katie Sewell (KSmusic15)

capo 4th fret

|---3 (keep strumming)
|---1
|---0
|---2
|---3
|---0


| ---3-----3-----3-| (repeat 3 or 4 times)
| ---1-----1-----1-|
| ---0-----2-----0-|
| ---0-----2-----2-|
| ---2-----0-----2-|
| ---3-----0-----0-|


|---0-----0-----0-----0-|
|---1-----1-----1-----1-|
|---0-----0-----2-----0-|
|---2-----0-----2-----2-|
|---3-----2-----0-----2-|
|---0-----3-----0-----0-|

and there you go :D
Tap to rate this tab
 
# A B C D E F G H I J K L M N O P Q R S T U V W X Y Z