Song name
# A B C D E F G H I J K L M N O P Q R S T U V W X Y Z

Katie Sewell - Forever On Going tab

heya its this is the guitar tab for forever on going by Katie Sewell (KSmusic15)
capo 2
-------------------------------------------|
----1-----1-----1-----1-----1-----1-----1--|
---2-2---2-2---0-0---0-0---0-0---2-2---2-2-|
--2-----2-----2-----2-----2-----2-----2----|
-0-----0-----3-----3-----2-----0-----0-----|
-------------------------------------------|
repeat again

----------------------------------------------|
-1--11111--11111---11111--11111--11111--11111-|
-2--22222--22220---00000--00000--00000--00002-|
-2--22222--22222---22222--22222--22222--22222-|
---------------3---33333--33332--22222--2222--|
----------------------------------------------|
repeat

-----------------|
----1--1--1--1-1-|
---2--0--0--2--2-|
--2--2--2--2---2-|
-0--3--2--0------|
-----------------|
Repeat

----0--0--0--0---|
---1--1--1--1--1-|
--2--2--2--2---2-|
-0--3--2--0------|
-----------------|
-----------------|
repeat

-----------------------------------------------------|
-3--33333--33333---33333--33333--33333--33333---3--1-|
-2--22222--22220---00000--00000--00000--00002--------|
-2--22222--22222---22222--22222--22222--22222--------|
---------------3---33333--33332--22222--2222---------|
-----------------------------------------------------|

there you go hope you enjoy it :D
Tap to rate this tab
 
# A B C D E F G H I J K L M N O P Q R S T U V W X Y Z