Song name
# A B C D E F G H I J K L M N O P Q R S T U V W X Y Z

Katrina Elam - Normal tab

e |--------------------------------------------------------|
B |--------------------------------------------------------|
G |--------------------------------------------------------|
D |--------------------------------------------------------|
A |-----6-6-6-6-6-6-6-6-6-6-6-6-6-6-6-6-6-6-6-6-6-6-6-6----|
E |-----7-7-7-7-7-7-7-7-6-6-6-6-6-6-6-6-4-4-4-4-4-4-4-4----|


e |----------------------0----2----3----5------------|
B |----------------------0----2----3----5------------|
G |----------------------1----3----4----6------------|
D |----------------------2----4----5----7------------|       Repeat
A |-----6-6-6-6-6-6-6-6--2----4----5----7------------|
E |-----2-2-2-2-2-2-2-2--0----2----3----5------------|
Tap to rate this tab
 
# A B C D E F G H I J K L M N O P Q R S T U V W X Y Z