Song name
# A B C D E F G H I J K L M N O P Q R S T U V W X Y Z

Katrina Elam - Drop Dead Gorgeous tab

Help us improve GuitareTab! Take a short survey!
----------------------------------------------------------------------------
			     DROP DEAD GORGEOUS - Short Stack
----------------------------------------------------------------------------
Tabbed by: Alex
Email: wammybar6@gmail.com

Tuning: Drop D

e|----------------------------------------------------------------------------------|
B|----------------------------------------------------------------------------------|
G|----------------------------------------------------------------------------------|
D|----------------------------------------------------------------------------------|
A|---8------------------------------8-8----8-8----3-3----3-3------------------------|
E|---8------slide pick on 6th string------8-8----8-8----3-3----3-3------------------|

e|----------------------------------------------------------------------------|
B|----------------------------------------------------------------------------|
G|----------------------------------------------------------------------------|
D|--5-5----5-5----------------------------------------------------------------|
A|--3-3----3-3----1-1----1-1----3---------------------------------------------|
E|----------------1-1----1-1----3---------------------------------------------|
Related for Drop Dead Gorgeous tab