Guitaretab - guitar tabs
Song name
# A B C D E F G H I J K L M N O P Q R S T U V W X Y Z

Katy Perry - Fingerprints tab

KATY PERRY - FINGERPRINTS

VERSE
e|-----------------------------------------------|
B|-----------------------------------------------|
G|-----------------------------------------------|   3x
D|-----------------------------------------------|
A|--5---------7---------4--------5---------------|
E|--3ó--------5---------2--------3---------------|

REFRAIN
e|-------------------------------------------|
B|-------------------------------------------|
G|-------------------------------------------|   2x
D|-------------------------------------------|
A|--7--------9---------5---------------------|
E|--5--------7---------3---------------------|
[ Tab from: http://www.guitaretab.com/k/katy-perry/180854.html ]
CHORUS
e|---------------------------------------------------|
B|---------------------------------------------------|
G|--------------------7------------------------------|
D|----9-------5-------7-------7---8------------------| 3X
A|----9-------5-------5-------7---8------------------|
E|----7-------3---------------5---6------------------|
Iím leaving my fingerprints.....
e|-----------------------------------------------|
B|-----------------------------------------------|
G|-----------------------------------------------|
D|-----------------------------------------------|
A|---3------7------4-------5---------------------|
E|---5------5------2-------3---------------------|

REPEAT VERSE								   REPEAT CHORUS

BRIDGE
e|------------------|--------------|--------------------------|
B|------------------|--------------|--------------------------|
G|------------------|-----------7--|--------------------------|
D|---9----7----5----|-9----7----7--|--9----7----5-----7-------|
A|---9----7----5----|-9----7----5--|--9----7----5-----7-------|
E|---7----5----3----|-7----5-------|--7----5----3-----5-------|

REPEAT CHORUS
Related for Fingerprints tab