Song name
# A B C D E F G H I J K L M N O P Q R S T U V W X Y Z

Katy Perry - I Kissed A Girl Acoustic tab

KATY PERRY - I KISSED A GIRL 

LIVE ACOUSTIC PERFORMANCE:
http://www.youtube.com/watch?v=WU9Cdtf_3Zk

VERSE
e|---------------------------------------------------------------------|
B|---------------------------------------------------------------------|
G|---------------------------------------------------------------------|
D|----7--------------------10------10------10--------------------------|
A|----X-------8----7-------X-------8-------7---------------------------|
E|----5-------7----8-------10------X-------X---------------------------|

when they play it live in acoustic sessions, after playing the verse 
once as shown above, they keep their pinky finger on the tenth fret of the
D String througout the rest of the entire verse

CHORUS
e|----------------------------------------------------------------------|
B|----------------------------------------------------------------------|
G|----2-------5-------7------9--10----9---------------------------------|
D|----2-------5-------7------9--10----9---------------------------------|
A|----0-------3-------5------7---8----7---------------------------------|
E|----------------------------------------------------------------------|


BRIDGE
e|--1-----------------------3-----1-----------------3-----2------|
B|--1---------------1-------0-----1-----------1-----0-----3------|
G|--2-------1-------2-------0-----2-----1-----2-----0-----2------|
D|--3-------2-------2-------0-----3-----2-----2-----0-----0------|
A|--3-------2---------------2-----3-----2-----------2------------|
E|--1-----------------------3-----1-----------------3------------|
    F       E      Am       G     F    E     Am     G     D

REPEAT CHORUS

Tap to rate this tab
# A B C D E F G H I J K L M N O P Q R S T U V W X Y Z