Guitaretab - guitar tabs
Song name
# A B C D E F G H I J K L M N O P Q R S T U V W X Y Z

Katy Perry - Brick By Brick tab

KATY PERRY  BRICK BY BRICK

*WATCH THIS VIDEO FOR STRUMMING PATTERN:
http://www.youtube.com/watch?v=TjijIT3soCs

CAPO 1

INTRO  Same as Verse

VERSE
e|------------------------------------------------------------------|
B|------------------------------------------------------------------|
G|------------------------------------------------------------------|
D|------------------------------------------------------------------|
A|---13-------10--------8---------6----------13---------------------|
E|---11-------8---------6---------4----------11---------------------|
Check the video cuz you do strum the open strings, but not the high e string - so make 
to check the video!!

PRE-CHORUS
e|-----------------------------|--------------|
B|-----------------------------|--------------|
G|-----------------------------|----2---------|
D|-----------------------------|----2---------|
A|---6--------10-------8-------|----0---------|
E|---4--------8--------6-------|----2---------|
   |----------2X------------------------------|

[ Tab from: http://www.guitaretab.com/k/katy-perry/182816.html ]
CHORUS
e|---3-----3-----------|---3------------------------|--3--------------------|
B|---3-----2------0----|---4------4------4------4---|--4----4---------------|
G|---0-----3------2----|---5------5------5------5---|--5----5---0-----------|
D|---0-----0------2----|---5------5------5------5---|--5----5---2-----------|
A|---2------------0----|---3------0------x------x---|--3----0---2---5---6---|
E|---3-----------------|---3------0------4------5---|--3----0-------3---4---|
   |-------3x---------|     |-----------2x----------------------------------|

REPEAT VERSE
REPEAT PRE-CHORUS
REPEAT CHORUS

BRIDGE
e|------------------------------------------------------------------|------|
B|------------------------------------------------------------------|------|
G|------------------------------------------------------------------|--2---|
D|------------------------------------------------------------------|--2---|
A|--11-----6------10--------11-------6-------10------8------6-------|--0---|
E|--9------4------8---------9--------4-------8-------6------4-------|--2---|
*check the live video to see how to play this part (again, open strings are played 
for high e string)

REPEAT CHORUS


my youtube: msslamchamp  - ask any questions if you need to!
Tabbed by Karla!!
Related for Brick By Brick tab
Brick By Brick chords by Katy Perry