Guitaretab - guitar tabs
Song name
# A B C D E F G H I J K L M N O P Q R S T U V W X Y Z

Katy Perry - Brick By Brick tab

Brick By Brick - Katy Perry
Performed At Stripped - Watch For Strum Pattern

http://www.youtube.com/watch?v=TjijIT3soCs

I give credit to Karla for some of the song but I am making some corrections to it. 
by fazbo1.

CAPO 1

All other strings are played open except for high e.

INTRO
e|------------------------------------------------------------------|
B|------------------------------------------------------------------|
G|------------------------------------------------------------------|
D|------------------------------------------------------------------|
A|---12-------9---------7---------5----------12---------------------|
E|---10-------7---------6---------3----------10---------------------|


VERSE 2x
e|------------------------------------------------------------------|
B|------------------------------------------------------------------|
G|------------------------------------------------------------------|
D|------------------------------------------------------------------|
A|---12-------9---------7---------5----------12---------------------|
E|---10-------7---------6---------3----------10---------------------|

PRE-CHORUS
e|-----------------------------|------------------|
B|-----------------------------|------------------|
G|-----------------------------|----2-------------|
D|-----------------------------|----2-------------|
A|---5--------9-------7--------|----0-------------|
E|---3--------7-------5--------|----2-------------|
        {------2x---------------------------------|

CHORUS
e|---3----2----------|---2----------------------|--2------------2---3-------|
B|---3----3-----0----|---3-----3------3-----3---|--3----3-------2---3-------|
G|---0----2-----2----|---4-----4------4-----4---|--4----4---0---2---3-------|
D|---0----0-----2----|---4-----4------4-----4---|--4----4---2---4---5-------|
A|---2----------0----|---2-----0------x-----x---|--2----0---2---4---5-------|
E|---3---------------|---2-----0------3-----4---|--2----0-------2---3-------|
   {-------3x---------------------------------------------------------------|

[ Tab from: http://www.guitaretab.com/k/katy-perry/204000.html ]
VERSE 2x
e|------------------------------------------------------------------|o
B|------------------------------------------------------------------|x
G|------------------------------------------------------------------|x
D|------------------------------------------------------------------|x
A|---12-------9---------7---------5----------12---------------------|
E|---10-------7---------6---------3----------10---------------------|

PRE-CHORUS
e|-----------------------------|------------------|
B|-----------------------------|------------------|
G|-----------------------------|----2-------------|
D|-----------------------------|----2-------------|
A|---5--------9-------7--------|----0-------------|
E|---3--------7-------5--------|----2-------------|
        {------2x---------------------------------|

CHORUS
e|---3----2----------|---2----------------------|--2------------2---3-------|
B|---3----3-----0----|---3-----3------3-----3---|--3----3-------2---3-------|
G|---0----2-----2----|---4-----4------4-----4---|--4----4---0---2---3-------|
D|---0----0-----2----|---4-----4------4-----4---|--4----4---2---4---5-------|
A|---2----------0----|---2-----0------x-----x---|--2----0---2---4---5-------|
E|---3---------------|---2-----0------3-----4---|--2----0-------2---3-------|
   {-------3x---------------------------------------------------------------|


BRIDGE
e|------------------------------------------------------------------|------|
B|------------------------------------------------------------------|------|
G|------------------------------------------------------------------|--2---|
D|------------------------------------------------------------------|--2---|
A|--10-----5------9--------10--------5-------9-------7------5-------|--0---|
E|--8------3------7---------8--------3-------7-------5------3-------|--2---|

CHORUS
e|---3----2----------|---2----------------------|--2------------2---3-------|
B|---3----3-----0----|---3-----3------3-----3---|--3----3-------2---3-------|
G|---0----2-----2----|---4-----4------4-----4---|--4----4---0---2---3-------|
D|---0----0-----2----|---4-----4------4-----4---|--4----4---2---4---5-------|
A|---2----------0----|---2-----0------x-----x---|--2----0---2---4---5-------|
E|---3---------------|---2-----0------3-----4---|--2----0-------2---3-------|
   {-------3x-------}   {---------4x----------------------------------------|

OUTRO
e|-------2---3-------|-------------------|
B|-------2---3-------|-------------------|
G|---0---2---3-------|-------------------|
D|---2---4---5-------|-------------------|
A|---2---4---5-------|---12--------------|
E|-------2---3-------|---10--------------|

She finishes like that but you can finish it on a simple D chord-2320xx if you want. It 
good either way.
Related for Brick By Brick tab
Brick By Brick chords by Katy Perry