Song name
# A B C D E F G H I J K L M N O P Q R S T U V W X Y Z

Katy Perry - Thinking Of You tab

THINKING OF YOU - KATY PERRY

Just figuring out what I could do cuz I'm so bored, til I thought of tabbing out this song.
It may not be perfect but it really sounds alike.
For questions, corrections and whatever, email me here:
missed.edwards@yahoo.com

Standard tuning

x - mute

Intro & 1st verse:

---0-0-0-0--0-0-0-0---0-0-0-0--0-0-0-0-|
---0-0-0-0--0-0-0-0---0-0-0-0--0-0-0-0-|
---9-9-9-9--9-9-9-9---9-9-9-9--9-9-9-9-|
---9-9-9-9--9-9-9-9---9-9-9-9--9-9-9-9-|
--7--x-x-x-7--x-x-x---x-x-x-x--x-x-x-x-|
---------------------7--------7--------|


cont.

---0-0-0-0--0-0-0-0---0-0-0-0--0-0-0-0-|
---0-0-0-0--0-0-0-0---0-0-0-0--0-0-0-0-|
---9-9-9-9--9-9-9-9---9-9-9-9--9-9-9-9-|
---9-9-9-9--9-9-9-9---9-9-9-9--9-9-9-9-|
---x-x-x-x--x-x-x-x--0--------0------0-|
--9--------9---------------------------|


Figure out the strumming of the refrain, chorus and bridge.
It's not hard, though.


Refrain:


-0-0-0-0-0-|--0--0-0-|
-0-0-0-0-0-|--0--0-0-|
-4-6-2-4-6-|-14-13-2-|
-4-6-2-4-6-|-14-13-2-|
-2-4-0-2-4-|-12-11-0-|
-----------|-------0-|

-0-0-0-0-0-------|------0-|
-0-0-0-0-0-------|------1-|
-1-4-6-2-4--two--|-then-2-|
-2-4-6-2-4--times|------2-|
-2-2-4-0-2-------|------0-|
-0---------------|--------|


Same as intro but don't repeat one of each.
Aw.. Can't explain it better so, here, in case of not understanding it

--0-0-0-0-|
--0-0-0-0-|
--9-9-9-9-|  same as the others
--9-9-9-9-|
-7--------|
----------|

and when you get to the last part,

-0-0-0-0-0-0-0-0-|
-0-0-0-0-0-0-0-0-|
-9-9-9-9-9-9-9-9-|
-9-9-9-9-9-9-9-9-|
-0-0-0-0-0-0-0-0-|
-0-0-0-0-0-0-0-0-|

And then turn to the 2nd verse. Figure out the strumming too.
I told you that ain't hard.


Bridge


-0-0-0-0------|------0-|
-0-0-0-0------|------1-|
-6-4-2-2-two--|-then-2-|
-6-4-2-2-times|------2-|
-4-2-0-0------|------0-|
--------------|--------|


Play the chorus pattern twice.

And there you got it.
Tap to rate this tab
# A B C D E F G H I J K L M N O P Q R S T U V W X Y Z