Song name
# A B C D E F G H I J K L M N O P Q R S T U V W X Y Z

Katy Perry - Thinking Of You tab

Thinking of You by Katy Perry tabbed by Millie&Mavis
No Capo
I am so sorry my tab is upside down!!! i didn't notice till i was down so make sure you 
playing the right chords!!

Thinking of you is a great song and really fun to play but you have to really know your 
this is not the exact way Katy Perry plays but its sounds the same and is a lot of fun!

strumming pattern:basically pick the a string then down strum, then up and down---pause 
beat b4 the up the down strum, so you will go--pick, down, up down

 intro/verse
E----------------------------------------------------------------------------|
A--7-7--7-7--7-7--7-7--2-2--2-2--2-2--2-2--4-4--4-4--4-4--4-4--0-0--0-0--0-0-|
D----9----9----9----9----4----4----4----4----6----6----6----6----2----2----2-|
G----9----9----9----9----4----4----4----4----6----6----6----6----2----2----2-|
B----------------------------------------------------------------------------|
e----------------------------------------------------------------------------|

continuing to prechorus....
E---------------------------------------------------------------------------|
A--0-0--7-7--7-7--2-2--2-2--4-4--4-4--0-0--2--------------------------------|
D----2----9----9----4----4----6----6----2--2--------------------------------|
G----2----9----9----4----4----6----6----2--2--------------------------------|
B---------------------------------------------------------------------------|
E---------------------------------------------------------------------------|

chorus:
E-------------------------------------------------------|
A--7-7--7-7--2-2--2-2--5-5--5-5--0-0--0-0---------------|
D----9----9----4----4----7----7----2----2---------------|
G----9----9----4----4----7----7----2----2---------------|  (x2)
B-------------------------------------------------------|
e-------------------------------------------------------|


Bridge:

E--------------------------------------------------------------------|
A---2-2--2-2--4-4--4-4--2-2--2-2--4-4--4-4--7-7--7-7-----------------|
D-----4----4----6----6----4----4----6----6----9----9-----------------|  (x3)
G-----4----4----6----6----4----4----6----6----9----9-----------------|
B--------------------------------------------------------------------|
e--------------------------------------------------------------------|


if you need any help feel free to email me at cassiequeen8@yahoo.com or on 
twitter>> GiTarManiak94 :)

comment rate and suggest thx!
Tap to rate this tab
 
# A B C D E F G H I J K L M N O P Q R S T U V W X Y Z