Song name
# A B C D E F G H I J K L M N O P Q R S T U V W X Y Z

Katy Perry - Teenage Dream tab

-- Katy Perry  Teenage Dream --

Drop D tuning DADGBE

tabbed by x-tasha-x


INTRO:
guitar 1:
E||-------------------|
B||-------------------|
G||-77777777775555555-|
D||-------------------|
A||-------------------|
D||-------------------|

guitar 2: (palm mute)
E||-------------------|
B||-------------------|
G||-8888888888--------|
D||-88888888883333333-|
A||-66666666663333333-|
D||-----------3333333-|


VERSE:
You think I'm pretty without any makeup on... 
guitar 1:
E||-------------------|
B||-------------------|
G||-77777777775555555-|x8
D||-------------------|
A||-------------------|
D||-------------------|

guitar 2: (palm mute)
E||-------------------|  |----------------|
B||-------------------|  |----------------|
G||-8888888888--------|x4|-8888888--------|x4
D||-88888888883333333-|  |-8888888-5-33---|
A||-66666666663333333-|  |-6666666-5-33---|
D||-----------3333333-|  |---------5-33---|


PRE CHORUS:
Lets go all the way tonight...
guitar 1:
E||-------------------|
B||-------------------|
G||-77777777775555555-|x4
D||-------------------|
A||-------------------|
D||-------------------|

guitar 2: (palm mute)
E||----------------|
B||----------------|
G||-8888888--------|x4
D||-8888888-5-33---|
A||-6666666-5-33---|
D||---------5-33---|


CHORUS:
You make me feel like I'm living a...
guitar 1:
E||-------------------|
B||-------------------|
G||-77777777775555555-|x8
D||-------------------|
A||-------------------|
D||-------------------|

guitar 2:
E||-------------|
B||-------------|
G||-------------|x8
D||-1----5-33---|
A||-1----5-33---|
D||-1----5-33---|

guitar 3:
[starts at] My heart stops...
E||-666666666-5555-3333-1111111111111111-|x2
B||--------------------------------------|
G||--------------------------------------|
D||--------------------------------------|
A||--------------------------------------|
D||--------------------------------------|


VERSE 2:
We drove to cali... 
guitar 1:
E||-------------------|
B||-------------------|
G||-77777777775555555-|x4
D||-------------------|
A||-------------------|
D||-------------------|

guitar 2: (palm mute)
E||----------------|
B||----------------|
G||-8888888--------|x4
D||-8888888-5-33---|
A||-6666666-5-33---|
D||---------5-33---|


PRE CHORUS:
Lets go all the way tonight...
guitar 1:
E||-------------------|
B||-------------------|
G||-77777777775555555-|x4
D||-------------------|
A||-------------------|
D||-------------------|

guitar 2: (palm mute)
E||----------------|
B||----------------|
G||-8888888--------|x4
D||-8888888-5-33---|
A||-6666666-5-33---|
D||---------5-33---|

guitar 3:
E||3-3-3-3-1-1-1-1-|
B||3-3-3-3-1-1-1-1-|x4
G||----------------|
D||----------------|
A||----------------|
D||----------------|


CHORUS(same as before)

BRIDGE:
I'mma get your heart racing in my skin tight jeans...
guitar 1:
E||-------------------|
B||-------------------|
G||-77777777775555555-|x6
D||-------------------|
A||-------------------|
D||-------------------|

guitar 2:
E||-------------|
B||-------------|
G||-------------|x6
D||-1----5-33---|
A||-1----5-33---|
D||-1----5-33---|

guitar 3:
E||-666666666-5555-3333-1111111111111111-|x3
B||--------------------------------------|
G||--------------------------------------|
D||--------------------------------------|
A||--------------------------------------|
D||--------------------------------------|


LAST CHORUS:
You make me feel like I'm living a...
guitar 1:
E||-------------------|
B||-------------------|
G||-77777777775555555-|x8
D||-------------------|
A||-------------------|
D||-------------------|

guitar 2:
E||-------------|
B||-------------|
G||-------------|x8
D||-1----5-33---|
A||-1----5-33---|
D||-1----5-33---|

guitar 3:
E||-666666666-5555-3333-1111111111111111-|x4
B||--------------------------------------|
G||--------------------------------------|
D||--------------------------------------|
A||--------------------------------------|
D||--------------------------------------|


END WITH BRIDGE:
I'mma get your heart racing in my skin tight jeans...
guitar 1:
E||-------------------|
B||-------------------|
G||-77777777775555555-|x6
D||-------------------|
A||-------------------|
D||-------------------|

guitar 2:
E||-------------|
B||-------------|
G||-------------|x6
D||-1----5-33---|
A||-1----5-33---|
D||-1----5-33---|

guitar 3:
E||-666666666-5555-3333-1111111111111111-|x3
B||--------------------------------------|
G||--------------------------------------|
D||--------------------------------------|
A||--------------------------------------|
D||--------------------------------------|
Tap to rate this tab
 
# A B C D E F G H I J K L M N O P Q R S T U V W X Y Z