Song name
# A B C D E F G H I J K L M N O P Q R S T U V W X Y Z

Katy Perry - California Gurls tab

Intro:

 e|---------------------------------------------------|
 B|--1----3-3----5----6-6---------6-------------------|
 G|---------------------------------------------------|
 D|---------------------------------------------------|
 A|--0----1-1----3----5-5---------5-------------------|
 E|---------------------------------------------------|


Refrain:

C,Dm,Bb

Chorus:

 e|---------------------------------------------------|
 B|--1----3-3----5----6-6---------6-------------------|
 G|---------------------------------------------------|
 D|---------------------------------------------------|
 A|--0----1-1----3----5-5---------5-------------------|
 E|---------------------------------------------------|
Tap to rate this tab
# A B C D E F G H I J K L M N O P Q R S T U V W X Y Z