Katy Perry - Teenage Dream tab

Hey everybody, this is easy tab for song Teenage Drem by Katy Perry. :)



Intro(clean):
E||-----------------|
B||-----------------| 
G||-3333333333111111|  x2 and then Verse
D||-3333333333333333|
A||-----------------|
D||-----------------|

Verse(clean): 

E||-----------------|
B||-----------------|
G||-3333333333111111| Do this until the Chorus
D||-3333333333333333|
A||-----------------|
D||-----------------|

Chorus(overdrive):
E||-------------------|
B||-------------------|
G||-------------------|
D||-4----8--66--------|
A||-4----8--66--------|
D||-2----6--44--------|

Verse(clean): 

E||-----------------|
B||-----------------|
G||-3333333333111111|
D||-3333333333333333|
A||-----------------|
D||-----------------|

Chorus(overdrive):
E||-------------------|
B||-------------------|
G||-------------------|
D||-3----8--66--------|
A||-3----8--66--------|
D||-2----6--44--------|

That is all :)
Tap to rate this tab
 
# A B C D E F G H I J K L M N O P Q R S T U V W X Y Z