Katy Perry - Not Like The Movies tab

Hi there!  Excellent song by Katy Perry:)  The notes in () are
not 100% necessary.  I like playing with the fourth note, but it can
just be a pause if you want.  Please let me know if there are any
changes that you think need to be made before just rating it low-
I'm a newbie at tabbing, so give me a little slack:) lol!  I think 
it sounds great playing along with the song! (These chords are from
version 2, MatisyahuFan- Thanks:))
*note- The chords are not placed precisely with the lyrics where
they are to be played. If you use any of my chords, you know I'm very
picky about chord placement, but with a tab it's a bit difficult.  You
really need to just play along with the song until you have the rhythm
down and it all memorized:) 


       ****************Have Fun!*****************

Standard Tuning w/
Capo on 1


Intro-

       G           Em           Bm          D
e|------------------------------------------------------------|
B|-------(3)-----------(0)--------3-----------3---------------|
G|------0-------------0---------4--(4)------2---2-------------| x2
D|----0-------------2---------4-----------0-------------------|
A|----------------2-------------------------------------------|
E|--3---------------------------------------------------------|



Verse-

       G           Em           Bm            D
e|------------------------------------------------------------|
B|-------(3)----------(0)---------3-------------3-------------|
G|------0------------0----------4--(4)--------2---2-----------| x4
D|--- 0------------2----------4-------------0-----------------|
A|---------------2--------------------------------------------|
E|--3---------------------------------------------------------|
   He put it on me, I put it on, like there was nothing wrong
   It didn't fit, it wasn't right, wasn't just the size
   They say you know, when you know, I don't know oh oh oh...



Pre Chorus-

      C                      D                                 
e|----------------------------------------------|
B|--------1-------1------------3-------3--------|
G|------0---0---0------------2---2---2---2------|
D|----2-------2------------0-------0------------|
A|--3-------------------------------------------|
E|----------------------------------------------|
   I didn't feel the fairytale 


      Em                  Bm             
e|----------------------------------------------|
B|--------0-------0---------3-------3-----------|
G|------0---0---0---------4---4---4---4---------|
D|----2-------2---------4-------4---------------|
A|--2-------------------------------------------|
E|----------------------------------------------|
   Feeling, no...  


      C                      D                                 
e|----------------------------------------------|
B|--------1-------1------------3-------3--------|
G|------0---0---0------------2---2---2---2------|
D|----2-------2------------0-------0------------|
A|--3-------------------------------------------|
E|----------------------------------------------|
   Am I, (a) stupid girl, for even 


      Em        Em          D             
e|----------------------------------------------|
B|--------0-------0---------3-------------------|
G|------0---0---0---------2---2---2-------------|
D|----2-------2---------0-------0--0------------|
A|--2-------------------------------------------|
E|----------------------------------------------|
   Dreaming that I could



Chorus-

      G            C            F        
e|----------------------------------------------|
B|--------------------------------1-------------|
G|------0------------0----------2---------------| x2
D|----0------------2----------3-----------------|
A|---------------3------------------------------|
E|--3-------------------------------------------|
   If it's not like the movies
   That's how it should be, yeah

      G           C          Em                                             
e|----------------------------------------------|
B|----------------------------------------------|
G|------0----------0-----------0----------------|
D|----0----------2-----------2------------------|
A|-------------3-----------2--------------------|
E|--3-------------------------------------------|
   When he's the one, I'll come undone


      Bm        Am                C/B            C          
e|-----------------------------------------------------------|
B|------3--------0---------------------------------1---------|
G|----4----------2---------------------------------0---------|
D|--4----------2----------------------0----------2-----------|
A|-----------0----------------------2----------3-------------|
E|--------------------------------3--------------------------|
 And my world will stop spinning. And that's just the beginning, yeah







       G           Em           Bm            D
e|------------------------------------------------------------|
B|-------(3)----------(0)---------3-------------3-------------|
G|------0------------0----------4--(4)--------2---2-----------| x2
D|--- 0------------2----------4-------------0-----------------|
A|---------------2--------------------------------------------|
E|--3---------------------------------------------------------|




Verse-

       G           Em           Bm            D
e|------------------------------------------------------------|
B|-------(3)----------(0)---------3-------------3-------------|
G|------0------------0----------4--(4)--------2---2-----------| x4
D|--- 0------------2----------4-------------0-----------------|
A|---------------2--------------------------------------------|
E|--3---------------------------------------------------------|
  Snow White said when I was young, one day my prince will come
  So I wait for that date
  They say it's hard to meet your match, find my better half
  So we make perfect shapes



Pre Chorus-

      C                      D                                 
e|----------------------------------------------|
B|--------1-------1------------3-------3--------|
G|------0---0---0------------2---2---2---2------|
D|----2-------2------------0-------0------------|
A|--3-------------------------------------------|
E|----------------------------------------------|
   If stars don't align, if it doesn't stop 


      Em                  Bm             
e|----------------------------------------------|
B|--------0-------0---------3-------3-----------|
G|------0---0---0---------4---4---4---4---------|
D|----2-------2---------4-------4---------------|
A|--2-------------------------------------------|
E|----------------------------------------------|
   Time, if you cant see the sign, wait for it


      C                      D                                 
e|----------------------------------------------|
B|--------1-------1------------3-------3--------|
G|------0---0---0------------2---2---2---2------|
D|----2-------2------------0-------0------------|
A|--3-------------------------------------------|
E|----------------------------------------------|
   One hundred percent,  with every penny


       Em                  D             
e|----------------------------------------------|
B|--------0-------0---------3-------------------|
G|------0---0---0---------2---2---2-------------|
D|----2-------2---------0-------0---0-----------|
A|--2-------------------------------------------|
E|----------------------------------------------|
  Spent, he'll be the one that, finishes your sentences



Chorus-

      G            C            F        
e|----------------------------------------------|
B|--------------------------------1-------------|
G|------0------------0----------2---------------| x2
D|----0------------2----------3-----------------|
A|---------------3------------------------------|
E|--3-------------------------------------------|
   If it's not like the movies
   That's how it should be, yeah

      G           C          Em                                             
e|----------------------------------------------|
B|----------------------------------------------|
G|------0----------0-----------0----------------|
D|----0----------2-----------2------------------|
A|-------------3-----------2--------------------|
E|--3-------------------------------------------|
   When he's the one, I'll come undone


      Bm        Am                C/B            C          
e|-----------------------------------------------------------|
B|------3--------0---------------------------------1---------|
G|----4----------2---------------------------------0---------|
D|--4----------2----------------------0----------2-----------|
A|-----------0----------------------2----------3-------------|
E|--------------------------------3--------------------------|
 And my world will stop spinning. And that's just the beginning, 
 

Bridge- (strumming, down only)

C   Em
Oh, yeah                               [xx220x]
                     D                  Asus2               Am     Em
'Cause I know you're out there, And your,  your lookin' for me, oh
              D                Asus2          Am  C/B  C  Em     D
It's a crazy idea that you were   made perfectly  for  me you'll see



Chorus-

      G            C            F        
e|----------------------------------------------|
B|--------------------------------1-------------|
G|------0------------0----------2---------------| x2
D|----0------------2----------3-----------------|
A|---------------3------------------------------|
E|--3-------------------------------------------|
   Just like the movies
   That's how it will be, yeah

      G           C          Em                                             
e|----------------------------------------------|
B|----------------------------------------------|
G|------0----------0-----------0----------------|
D|----0----------2-----------2------------------|
A|-------------3-----------2--------------------|
E|--3-------------------------------------------|
   Cinematic and dramatic 


      Bm        Am                                     
e|----------------------------------------------|
B|------3--------0------------------------------|
G|----4----------2------------------------------|
D|--4----------2--------------------------------|
A|-----------0----------------------------------|
E|----------------------------------------------|
 With the perfect ending,  woah oh



Chorus-

      G            C            F        
e|----------------------------------------------|
B|--------------------------------1-------------|
G|------0------------0----------2---------------| x2
D|----0------------2----------3-----------------|
A|---------------3------------------------------|
E|--3-------------------------------------------|
   It's not like the movies
   But that's how it should be, yeah

      G           C          Em                                             
e|----------------------------------------------|
B|----------------------------------------------|
G|------0----------0-----------0----------------|
D|----0----------2-----------2------------------|
A|-------------3-----------2--------------------|
E|--3-------------------------------------------|
   When he's the one, you'll come undone


      Bm        Am               C/B           C          
e|-----------------------------------------------------------|
B|------3--------0-----------------------------0-------------|
G|----4----------2-----------------------------0-------------|
D|--4----------2------------------0------------2-------------|
A|-----------0--------------------2------------3-------------|
E|--------------------------------3--------------------------|
 And your world will stop spinning. And it's just the beginning... 
 



Have fun and RATE:)
Tap to rate this tab
 
# A B C D E F G H I J K L M N O P Q R S T U V W X Y Z