Song name
# A B C D E F G H I J K L M N O P Q R S T U V W X Y Z

Katy Perry - Ur So Gay tab

-------------------------------------------------------------------------------
			     Ur So Gay- Katy Perry
-------------------------------------------------------------------------------
Tuning: Standard

e|---------0----0--0--0---------0---------0---------0----0--0--0--------|
B|---------0----0--0--0---------0---------0---------0----0--0--0--------|
G|---------0----0--0--0---------0---------0---------0----0--0--0--------|
D|---------5----5--5--5---------5---------5---------2----2--2--2--------|
A|----7----7----7--7--7----7----7----5----5----3----3----3--3--3--------|
E|----------------------------------------------------------------------|

e|---------0----0--0--0----------0--0--0---------0--0--0----------------|
B|---------0----0--0--0----------0--0--0---------0--0--0----------------|
G|---------0----0--0--0----------5--5--5---------5--5--5----------------|
D|---------2----2--2--2----------7--7--7---------7--7--7----------------|
A|----3----3----3--3--3----0-----0--0--0----0----0--0--0----------------|
E|----------------------------------------------------------------------|

e|---------0--0--0----0----0----0----0----------------------------------|
B|---------4--4--4----4----4----4----4----------------------------------|
G|---------4--4--4----4----4----4----4----------------------------------|
D|---------4--4--4----4----4----4----4----------------------------------|
A|----2----2--2--2----2----2----2----2----------------------------------|
E|----------------------------------------------------------------------|

Repeats for whole song
Tap to rate this tab
# A B C D E F G H I J K L M N O P Q R S T U V W X Y Z