Song name
# A B C D E F G H I J K L M N O P Q R S T U V W X Y Z

Katy Perry - Last Friday Night tab

-------------------------------------------------------------------------------
Last Friday Night(TGIF) – By Katy Perry
-------------------------------------------------------------------------------
Tabbed by: (Take a Guess)
Email: victorclark010@yahoo.com

Tuning: eBGDAE

This is the basic chord progression throughout the song, really easy, but kinda boring.
Below this is the way I play it, simply because it’s a lot more fun to play, although
it’s not how it’s played on the studio version of the track, and it sounds better… in my 
opinion. But either way, you should be fine. Feel free to shoot me some questions, tell me
how awesome I am for taking the time to write this all up when I have school work to do, 
or to offer any advice you may have(tab for the Sax solo would be great!).

Studio Version (Below chords repeated throughout the song)

e|--7-7-7-x-7-7-7---4-4-4-x-4-4-4---6-6-6-x-6-6-6---4-4-4-x-4-4-4------------|
B|--7-7-7-x-7-7-7---4-4-4-x-4-4-4---7-7-7-x-7-7-7---6-6-6-x-6-6-6------------|
G|--8-8-8-x-8-8-8---4-4-4-x-4-4-4---8-8-8-x-8-8-8---6-6-6-x-6-6-6------------|
D|--9-9-9-x-9-9-9---6-6-6-x-6-6-6---8-8-8-x-8-8-8---6-6-6-x-6-6-6------------|
A|--9-9-9-x-9-9-9---6-6-6-x-6-6-6---6-6-6-x-6-6-6---4-4-4-x-4-4-4------------|
E|--7-7-7-x-7-7-7---4-4-4-x-4-4-4---6-6-6-x-6-6-6---4-4-4-x-4-4-4------------|


My Version


Intro(x1)

e|--7-7-7-x-7-7-7-x---4-4-4-x-4-4-4-x---6-6-6-x-6-6-6-x---4-4-4-x-4-4-4-x----|
B|--7-7-7-x-7-7-7-x---4-4-4-x-4-4-4-x---7-7-7-x-7-7-7-x---6-6-6-x-6-6-6-x----|
G|--8-8-8-x-8-8-8-x---4-4-4-x-4-4-4-x---8-8-8-x-8-8-8-x---6-6-6-x-6-6-6-x----|
D|--9-9-9-x-9-9-9-x---6-6-6-x-6-6-6-x---8-8-8-x-8-8-8-x---6-6-6-x-6-6-6-x----|
A|--9-9-9-x-9-9-9-x---6-6-6-x-6-6-6-x---6-6-6-x-6-6-6-x---4-4-4-x-4-4-4-x----|
E|--7-7-7-x-7-7-7-x---4-4-4-x-4-4-4-x---6-6-6-x-6-6-6-x---4-4-4-x-4-4-4-x----|


Verse(x4) – The 2nd mute is played while transitioning to the next chord.

e|--7-7-7-x-7-7-7-x---4-4-4-x-4-4-4-x---6-6-6-x-6-6-6-x---4-4-4-x-4-4-4-x----|
B|--7-7-7-x-7-7-7-x---4-4-4-x-4-4-4-x---7-7-7-x-7-7-7-x---6-6-6-x-6-6-6-x----|
G|--8-8-8-x-8-8-8-x---4-4-4-x-4-4-4-x---8-8-8-x-8-8-8-x---6-6-6-x-6-6-6-x----|
D|--9-9-9-x-9-9-9-x---6-6-6-x-6-6-6-x---8-8-8-x-8-8-8-x---6-6-6-x-6-6-6-x----|
A|--9-9-9-x-9-9-9-x---6-6-6-x-6-6-6-x---6-6-6-x-6-6-6-x---4-4-4-x-4-4-4-x----|
E|--7-7-7-x-7-7-7-x---4-4-4-x-4-4-4-x---6-6-6-x-6-6-6-x---4-4-4-x-4-4-4-x----|


Chorus: Part1(x4)

e|--7-7-x-7-x-7-7-7-x-------------------4-4-x-4-4-x-4-4-4-x------------------>
B|--7-7-x-7-x-7-7-7-x-------------------4-4-x-4-4-x-4-4-4-x------------------>
G|--8-8-x-8-x-8-8-8-x-------------------4-4-x-4-4-x-4-4-4-x------------------>
D|--9-9-x-9-x-9-9-9-x-------------------6-6-x-6-6-x-6-6-6-x------------------>
A|--9-9-x-9-x-9-9-9-x-------------------6-6-x-6-6-x-6-6-6-x------------------>
E|--7-7-x-7-x-7-7-7-x-------------------4-4-x-4-4-x-4-4-4-x------------------>

>---6-6-x-6-x-6-6-6-x-------------------4-4-x-4-4-x-4-4-4-x------------------|
>---7-7-x-7-x-7-7-7-x-------------------4-4-x-4-4-x-4-4-4-x------------------|
>---8-8-x-8-x-8-8-8-x-------------------4-4-x-4-4-x-4-4-4-x------------------|
>---8-8-x-8-x-8-8-8-x-------------------4-4-x-4-4-x-4-4-4-x------------------|
>---6-6-x-6-x-6-6-6-x-------------------4-4-x-4-4-x-4-4-4-x------------------|
>---6-6-x-6-x-6-6-6-x-------------------4-4-x-4-4-x-4-4-4-x------------------|


Chorus: Part2(x2)”This Friday night,(power chords start here)do it all again”

e|---------------------------------------------------------------------------|
B|---------------------------------------------------------------------------|
G|--------------------------------(8)---------->(6)---------->---------------|
D|-(9)------------>(6)------------>8-8-8-8-8-8-8/6-6-6-6-6-6-6---------------|
A|--9-9-9-9-9-9-9-9/6-6-6-6-6-6-6-66-6-6-6-6-6-6/4-4-4-4-4-4-4---------------|
E|--7-7-7-7-7-7-7-7/4-4-4-4-4-4-4-4------------------------------------------|


Verse(x4)

e|--7-7-7-x-7-7-7-x---4-4-4-x-4-4-4-x---6-6-6-x-6-6-6-x---4-4-4-x-4-4-4-x----|
B|--7-7-7-x-7-7-7-x---4-4-4-x-4-4-4-x---7-7-7-x-7-7-7-x---6-6-6-x-6-6-6-x----|
G|--8-8-8-x-8-8-8-x---4-4-4-x-4-4-4-x---8-8-8-x-8-8-8-x---6-6-6-x-6-6-6-x----|
D|--9-9-9-x-9-9-9-x---6-6-6-x-6-6-6-x---8-8-8-x-8-8-8-x---6-6-6-x-6-6-6-x----|
A|--9-9-9-x-9-9-9-x---6-6-6-x-6-6-6-x---6-6-6-x-6-6-6-x---4-4-4-x-4-4-4-x----|
E|--7-7-7-x-7-7-7-x---4-4-4-x-4-4-4-x---6-6-6-x-6-6-6-x---4-4-4-x-4-4-4-x----|


Chorus: Part1(x4)

e|--7-7-x-7-x-7-7-7-x-------------------4-4-x-4-4-x-4-4-4-x------------------>
B|--7-7-x-7-x-7-7-7-x-------------------4-4-x-4-4-x-4-4-4-x------------------>
G|--8-8-x-8-x-8-8-8-x-------------------4-4-x-4-4-x-4-4-4-x------------------>
D|--9-9-x-9-x-9-9-9-x-------------------6-6-x-6-6-x-6-6-6-x------------------>
A|--9-9-x-9-x-9-9-9-x-------------------6-6-x-6-6-x-6-6-6-x------------------>
E|--7-7-x-7-x-7-7-7-x-------------------4-4-x-4-4-x-4-4-4-x------------------>

>---6-6-x-6-x-6-6-6-x-------------------4-4-x-4-4-x-4-4-4-x------------------|
>---7-7-x-7-x-7-7-7-x-------------------4-4-x-4-4-x-4-4-4-x------------------|
>---8-8-x-8-x-8-8-8-x-------------------4-4-x-4-4-x-4-4-4-x------------------|
>---8-8-x-8-x-8-8-8-x-------------------4-4-x-4-4-x-4-4-4-x------------------|
>---6-6-x-6-x-6-6-6-x-------------------4-4-x-4-4-x-4-4-4-x------------------|
>---6-6-x-6-x-6-6-6-x-------------------4-4-x-4-4-x-4-4-4-x------------------|


Chorus: Part2(x2)

e|---------------------------------------------------------------------------|
B|---------------------------------------------------------------------------|
G|--------------------------------(8)---------->(6)---------->---------------|
D|-(9)------------>(6)------------>8-8-8-8-8-8-8/6-6-6-6-6-6-6---------------|
A|--9-9-9-9-9-9-9-9/6-6-6-6-6-6-6-66-6-6-6-6-6-6/4-4-4-4-4-4-4---------------|
E|--7-7-7-7-7-7-7-7/4-4-4-4-4-4-4-4------------------------------------------|



Interlude(x2)

e|--7-7-7-x-7-7-7---4-4-4-x-4-4-4---6-6-6-x-6-6-6---4-4-4-x-4-4-4------------|
B|--7-7-7-x-7-7-7---4-4-4-x-4-4-4---7-7-7-x-7-7-7---6-6-6-x-6-6-6------------|
G|--8-8-8-x-8-8-8---4-4-4-x-4-4-4---8-8-8-x-8-8-8---6-6-6-x-6-6-6------------|
D|--9-9-9-x-9-9-9---6-6-6-x-6-6-6---8-8-8-x-8-8-8---6-6-6-x-6-6-6------------|
A|--9-9-9-x-9-9-9---6-6-6-x-6-6-6---6-6-6-x-6-6-6---4-4-4-x-4-4-4------------|
E|--7-7-7-x-7-7-7---4-4-4-x-4-4-4---6-6-6-x-6-6-6---4-4-4-x-4-4-4------------|

Sax Solo Rhythm(x2) – Basically it’s the Chorus: Part 1 w/ power chords.
e|---------------------------------------------------------------------------|
B|---------------------------------------------------------------------------|
G|--------------------------------(8)--x---x----->(6)---------->-------------|
D|-(9)--x---x----->(6)--x---x----->8-8-x-8-x-8-8-8/6-6-6-6-6-6-6-------------|
A|--9-9-x-9-x-9-9-9/6-6-x-6-x-6-6-66-6-x-6-x-6-6-6/4-4-4-4-4-4-4-------------|
E|--7-7-x-7-x-7-7-7/4-4-x-4-x-4-4-4------------------------------------------|

Chorus: Part1(x4)

e|--7-7-x-7-x-7-7-7-x-------------------4-4-x-4-4-x-4-4-4-x------------------>
B|--7-7-x-7-x-7-7-7-x-------------------4-4-x-4-4-x-4-4-4-x------------------>
G|--8-8-x-8-x-8-8-8-x-------------------4-4-x-4-4-x-4-4-4-x------------------>
D|--9-9-x-9-x-9-9-9-x-------------------6-6-x-6-6-x-6-6-6-x------------------>
A|--9-9-x-9-x-9-9-9-x-------------------6-6-x-6-6-x-6-6-6-x------------------>
E|--7-7-x-7-x-7-7-7-x-------------------4-4-x-4-4-x-4-4-4-x------------------>


>---6-6-x-6-x-6-6-6-x-------------------4-4-x-4-4-x-4-4-4-x------------------|
>---7-7-x-7-x-7-7-7-x-------------------4-4-x-4-4-x-4-4-4-x------------------|
>---8-8-x-8-x-8-8-8-x-------------------4-4-x-4-4-x-4-4-4-x------------------|
>---8-8-x-8-x-8-8-8-x-------------------4-4-x-4-4-x-4-4-4-x------------------|
>---6-6-x-6-x-6-6-6-x-------------------4-4-x-4-4-x-4-4-4-x------------------|
>---6-6-x-6-x-6-6-6-x-------------------4-4-x-4-4-x-4-4-4-x------------------|


Chorus: Part2(x2)

e|---------------------------------------------------------------------------|
B|---------------------------------------------------------------------------|
G|--------------------------------(8)---------->(6)---------->---------------|
D|-(9)------------>(6)------------>8-8-8-8-8-8-8/6-6-6-6-6-6-6---------------|
A|--9-9-9-9-9-9-9-9/6-6-6-6-6-6-6-66-6-6-6-6-6-6/4-4-4-4-4-4-4---------------|
E|--7-7-7-7-7-7-7-7/4-4-4-4-4-4-4-4------------------------------------------|

Outro(x1)
e|--7~--------------------4~-----------------------6~------------------------|
B|--7~--------------------4~-----------------------7~------------------------|
G|--8~--------------------4~-----------------------8~------------------------|
D|--9~--------------------6~-----------------------8~------------------------|
A|--9~--------------------6~-----------------------6~------------------------|
E|--7~--------------------4~-----------------------6~------------------------|

Like I said, it’s a bit different the Studio Version, but I like it a bit more, cause
there’s more to it. Enjoy.
Tap to rate this tab
# A B C D E F G H I J K L M N O P Q R S T U V W X Y Z