Song name
# A B C D E F G H I J K L M N O P Q R S T U V W X Y Z

Katy Perry - Last Friday Night Tgif tab

       ^    v       v    ^    v       v       ^    v       v    ^    v       v    
       E    E   E   E    E    E   E   E       E    E   E   E    E    E   E   E    
E||---------------------------------------|--------------------------------------|
B||----7----7-------7----7----7-------7---|---7----7-------7----7----7-------7---|
G||*---8----8-------8----8----8-------8---|---8----8-------8----8----8-------8---|
D||*---9----9-------9----9----9-------9---|---6----6-------6----6----6-------6---|
A||---------------------------------------|--------------------------------------|
E||---(7)--(7)-----(7)--(7)--(7)-----(7)--|--(4)--(4)-----(4)--(4)--(4)-----(4)--|


   ^    v       v    ^    v       v       ^    v       v    ^    v       v      
   E    E   E   E    E    E   E   E       E    E   E   E    E    E   E   E      
--(6)--(6)-----(6)--(6)--(6)-----(6)--|---------------------------------------||
---7----7-------7----7----7-------7---|---6----6-------6----6----6-------6----||
---8----8-------8----8----8-------8---|---6----6-------6----6----6-------6---*||
---8----8-------8----8----8-------8---|---6----6-------6----6----6-------6---*||
--(6)--(6)-----(6)--(6)--(6)-----(6)--|--(4)--(4)-----(4)--(4)--(4)-----(4)---||
--------------------------------------|---------------------------------------||



E - 8th
^ - brush up
v - brush down
Tap to rate this tab
 
# A B C D E F G H I J K L M N O P Q R S T U V W X Y Z