Song name
# A B C D E F G H I J K L M N O P Q R S T U V W X Y Z

Katy Perry - Teenage Dream tab

------------------------------------------------------------------------------
			                                Teenage Dream
-------------------------------------------------------------------------------

Tabbed by: John
Email: jgonzal2@mail.usf.edu
Tuning: Standard 

    Wanted to make a chill cover of this song. The timing is not shown, but I have a video
 on youtube if you want to learn side by side. If you could leave me feedback that would be
 awesome. If you cover this song, it would be pretty cool if you could give me credit 
 because it took me a while to make. Thanks

 http://www.youtube.com/watch?v=GRtH5Bto1XQ&feature=related

Small note: later in the song you will see 22* but it does not mean 
pinch harmonic in this tab. It means either fret 22 or 21 bent, either sounds good.

Enjoy!

Intro

e|---------------------------------------------------------------------------|
B|---------------------------------------------------------------------------|
G|-------------------5-7-5------------7-5~----------------------------------|
D|---5-8-5-8-5--5--8-------7-8-(x3)-5----------------------------------------|
A|----------------------------------------xxx///-----------------------------|
E|----------------------------------------xxx///-----------------------------|

Verse 1	

e|---------------------------------------------------------------------------|
B|--------------------------------------------------/10-6--------------------|
G|-------------------5-7-5----------------------5-7-------7------------------|
D|---5-8-5-8-5--5--8-------7-8~--5-8-5-8-5--5-8------------------------------|
A|---------------------------------------------------------------------------|
E|---------------------------------------------------------------------------|

e|-------------------------------------------------------------/10-8~--------|
B|-----------------------------------/11-10-8~-8-8-6-6~---6-8~---------------|
G|-----------------5-7-5-------7-5~---------------------7--------------------|
D|---5-8-5-8-5-5-8-------7-8~-5----------------------------------------------|
A|---------------------------------------------------------------------------|
E|---------------------------------------------------------------------------|

e|-------------------------------------10-----|
B|---11-10-8~-8-8-6-6~---6-8~-6-8-10-11-------|
G|---------------------7-----7----------------|
D|--------------------------------------------|
A|--------------------------------------------|
E|--------------------------------------------|

Chorus 1

e|-------------------------------------------------10-8--------10-8----------|
B|--11-11-11-8-11-11-11-8~-(x2)--11-11-11-8-11-11-11----11-11-11-----11-11-11|X2(complete)
G|---------------------------------------------------------------------------|
D|---------------------------------------------------------------------------|
A|---------------------------------------------------------------------------|

Verse 2

e|---------------------------------------------------------------17-13-------|
B|----------------------13-15-13----------------------------13-15-----15~----|
G|-12-15-12-15-12~12-15---------14-15~--12-15-12-15-12~12-15-----------------|
D|---------------------------------------------------------------------------|
A|---------------------------------------------------------------------------|
E|---------------------------------------------------------------------------|

e|---------------------------------------------------------------------------|
B|---------------------13-15-13---------15-13~-------------------------------|
G|-12-15-12-15-12~12-15--------14-15~-12-------------------------------------|
D|---------------------------------------------------------------------------|
A|---------------------------------------------------------------------------|
E|---------------------------------------------------------------------------|




e|-18-17-15~-15-15-13-13---13-15~/22*-20--18-17-15~-15-15-13-13---13-15~-----|
B|-----------------------15-------------------------------------15-----------|
G|---------------------------------------------------------------------------|
D|---------------------------------------------------------------------------|
A|---------------------------------------------------------------------------|
E|---------------------------------------------------------------------------|
     *or 21 bend

e|---13-15-17-18-22*---|
B|-15------------------|
G|---------------------|
D|---------------------|
A|---------------------|
E|---------------------|

Chorus 2
e|-18-18-18-15-18-18-18-15~-(x2)-18-18-18~-15-18-18-22*~18-18-18-22*~18-18-18|
B|---------------------------------------------------------------------------|
G|---------------------------------------------------------------------------|
D|---------------------------------------------------------------------------|X2(complete)
A|---------------------------------------------------------------------------|
E|---------------------------------------------------------------------------|

Bridge

e|15-17-18-20-22-20-18-18-20-17-15-13~-13-15-------------------------13h15/22|
B|------------------------------------------15-13---------------13h15--------|
G|-----------------------------------------------15-15-17~-15h17-------------|
D|---------------------------------------------------------------------------|
A|---------------------------------------------------------------------------|
E|---------------------------------------------------------------------------|

e|-20-18-18-20-17-15-13-13-15----------------------------------------13-15~/-|
B|---------------------------15-13---------------15-13-11~~-10~~-11~---------|
G|---------------------------------15-15-17~15-17----------------------------|
D|---------------------------------------------------------------------------|
A|---------------------------------------------------------------------------|
E|---------------------------------------------------------------------------|

Chorus 3

e|22*-22*-22*-15-18--18-18-15~-18-18-18~15-18-18-18-15~-18-18-18~-15-18-18---|
G|---------------------------------------------------------------------------|
D|---------------------------------------------------------------------------|
A|---------------------------------------------------------------------------|
E|---------------------------------------------------------------------------|


e|-22*-18-18-18-22*~18-18-18-------------------------------------------------|
B|---------------------------------------------------------------------------|
G|---------------------------------------------------------------------------|
D|---------------------------------------------------------------------------|
A|---------------------------------------------------------------------------|
E|---------------------------------------------------------------------------|


e|-18-18-18~15-18-18-18-15~-(x2)-18-18-18~-15-18-18-22*~18-18-18-22*~18-18-18|
B|---------------------------------------------------------------------------|
G|---------------------------------------------------------------------------|
D|---------------------------------------------------------------------------|X2(complete)
A|---------------------------------------------------------------------------|
E|---------------------------------------------------------------------------|


Outro 

e|15-17-18-20-22-20-18-18-20-17-15-13~-13-15-------------------------13h15/22|
B|------------------------------------------15-13---------------13h15--------|
G|-----------------------------------------------15-15-17~-15h17-------------|
D|---------------------------------------------------------------------------|
A|---------------------------------------------------------------------------|
E|---------------------------------------------------------------------------|

e|-20-18-18-20-17-15-13-13-15-----------------------------------13~----------|
B|---------------------------15-13---------------15-13-11~~-10~~---11~-10~~--|
G|---------------------------------15-15-17~15-17----------------------------|
D|---------------------------------------------------------------------------|
A|---------------------------------------------------------------------------|
E|---------------------------------------------------------------------------|


Good job! Pretty easy huh?



************************************

| /   slide up
| \   slide down
| h   hammer-on
| p   pull-off
| ~   vibrato
| +   harmonic
| x   Mute note
| b   Bend
| pb  Pre-bend
| br  Bend release
| pbr Pre-bend release
| brb Bend release bend

************************************

Tap to rate this tab
# A B C D E F G H I J K L M N O P Q R S T U V W X Y Z