Song name
# A B C D E F G H I J K L M N O P Q R S T U V W X Y Z

Katy Perry - The One That Got Away tab

The one that got away - Katy Perry =)

This song is very fun to play :D

HAPPY TABBING


INTRO:
E|---7---------7---------7---------7---------|
B|-----9---9-----9---9-----9---9-----9---9---|     
G|-------9---------9---------8---------8-----|       
D|-------------------------------------------|            
A|-------------------------------------------|        
E|-------------------------------------------|         
                                                          
E|---9---------9---------9-----------9-----------|     
B|-----9---9-----9---9-----10---10-----10---10---|    
G|-------9---------9----------9-----------9------|    
D|-----------------------------------------------|  
A|-----------------------------------------------|  
E|-----------------------------------------------|
(you can also play this through the whole verse)


Verse:

E|--------------------------------------------------|     
B|--------------------------------------------------|    
G|---99999999--------------66666666-----------------|    
D|---99999999---66666666---66666666---77777777------|  
A|---77777777---66666666---44444444---77777777------|  2x
E|--------------44444444--------------55555555------|




Chorus:

E|--------------------------------------------------|     
B|--------------------------------------------------|    
G|---99999999--------------66666666-----------------|    
D|---99999999---66666666---66666666---77777777------|  
A|---77777777---66666666---44444444---77777777------|  2x
E|--------------44444444--------------55555555------|



Verse 2:

E|--------------------------------------------------|     
B|--------------------------------------------------|    
G|---99999999--------------66666666-----------------|    
D|---99999999---66666666---66666666---77777777------|  
A|---77777777---66666666---44444444---77777777------|  2x
E|--------------44444444--------------55555555------|



Chorus:

E|--------------------------------------------------|     
B|--------------------------------------------------|    
G|---99999999--------------66666666-----------------|    
D|---99999999---66666666---66666666---77777777------|  
A|---77777777---66666666---44444444---77777777------|  3x
E|--------------44444444--------------55555555------|



Bridge:


E|----------------------------------------------|     
B|----------------------------------------------|    
G|--------------6666----------------------------|    
D|---99999999---6666---7777---------------------|  
A|---99999999---4444---7777---------------------|  3x
E|---77777777----------5555---------------------|

E|--------------------------------------|     
B|--------------------------------------|    
G|--------------------------------------|    
D|---999999999999-----------------------|  
A|---999999999999-----------------------|  
E|---777777777777-----------------------|




Chorus and outro:

E|--------------------------------------------------|     
B|--------------------------------------------------|    
G|---99999999--------------66666666-----------------|    
D|---99999999---66666666---66666666---77777777------|  
A|---77777777---66666666---44444444---77777777------|  
E|--------------44444444--------------55555555------| 
(play until the song ends)




and that's how easy it is =)

Go here to download this song: http://www.youtube.com/watch?v=mGaCabsKkS0

Tabbed by Mimi ♥
Tap to rate this tab
 
# A B C D E F G H I J K L M N O P Q R S T U V W X Y Z