Song name
# A B C D E F G H I J K L M N O P Q R S T U V W X Y Z

Katy Perry - Unconditionally tab

Tuning: None
Tabbed by : Bassant Nabil
Egypt , February 26 , 2014
FB Account : https://www.facebook.com/bassant.nabil1


Hey Guys .. Umm this is my first tab ever , and i really worked hard to make it , so 
hope you rate me well :)

Verse 1 :
e|--------------------------------------------------------------|
B|--3-3---3-5-3-1-0--0-------------3--3-5-3-1-0-3---------------|
G|----------------------4-5-4-2-0-------------------------------|  x2
D|--------------------------------------------------------------|
A|--------------------------------------------------------------|
E|--------------------------------------------------------------|

Oh no, did I get too close? Oh, did I almost see what's really on the inside?
All your insecurities All the dirty laundry Never made me blink one time


Chorus :

e|--3---3---8--7--3---3---8--7-3--3---3---5-3-5-7-5--3-----------------|
B|----3-------------3---------------3-----------------3----------------|
G|---------------------------------------------------------------------|
D|---------------------------------------------------------------------|
A|---------------------------------------------------------------------|
E|---------------------------------------------------------------------|
Unconditional, unconditionally , I will love you unconditionally

e|--3---3---8--7--3---3---8--7-3--3---3-5---3-5-7-5--3-3----------------|
B|----3-------------3---------------3-----------------------------------|
G|----------------------------------------------------------------------|
D|----------------------------------------------------------------------|
A|----------------------------------------------------------------------|
E|----------------------------------------------------------------------|
There is no fear now , Let go and just be free ,I will love you unconditionally ..




Verse 2 :


e|--------------------------------------------------------------|
B|--3-3---3-5-3-1-0--0-------------3--3-5-3-1-0-3---------------|
G|----------------------4-5-4-2-0-------------------------------|
D|--------------------------------------------------------------|
A|--------------------------------------------------------------|
E|--------------------------------------------------------------|
Come just as you are to me , Don't need apologies ,Know that you are worthy


e|----------------------------------------------------------3--5--7------|
B|----3-3---3-5-3-1-0--0---------------3-0-3-5-3-1-0-3-------------------|
G|--0--------------------4-5-4-2-0---0-----------------------------------|
D|-----------------------------------------------------------------------|
A|-----------------------------------------------------------------------|
E|-----------------------------------------------------------------------|
I'll take your bad days with your good , Walk through the storm I would
I do it all because I love you ... I love you




Chorus :


e|--3---3---8--7--3---3---8--7-3--3---3---5-3-5-7-5--3-----------------|
B|----3-------------3---------------3-----------------3----------------|
G|---------------------------------------------------------------------|
D|---------------------------------------------------------------------|
A|---------------------------------------------------------------------|
E|---------------------------------------------------------------------|
Unconditional, unconditionally , I will love you unconditionally

e|--3---3---8--7--3---3---8--7-3--3---3-5---3-5-7-5--3-3----------------|
B|----3-------------3---------------3-----------------------------------|
G|----------------------------------------------------------------------|
D|----------------------------------------------------------------------|
A|----------------------------------------------------------------------|
E|----------------------------------------------------------------------|
There is no fear now , Let go and just be free ,I will love you unconditionally ..





Bridge :

e|---0--7--5--3--0--3-3--3-3-3--3---------|
B|--------------------------------3-------|
G|----------------------------------------| x2
D|----------------------------------------|
A|----------------------------------------|
E|----------------------------------------|
So open up your heart and just let it begin , Open up your heart and just let it begin ,

e|---0--7--5--3--0--3-3--3-3-3-----5-6-------7-7-8-7-5---|
B|-------------------------------------------------------|
G|-------------------------------------------------------|
D|-------------------------------------------------------|
A|-------------------------------------------------------|
E|-------------------------------------------------------|
Open up your heart and just let it begin .. Open up your heeeeaaaaart




Pre-Chorus:

e|--------------------------------------------------|
B|---3--3---3-5-3-1-0---------------3-5-3-1-0-3-----|
G|----------------------4-5-4-2-0-------------------|
D|--------------------------------------------------|
A|--------------------------------------------------|
E|--------------------------------------------------|
Acceptance is the key to be , To be truly free ,Will you do the same for me?



CHOURS :

e|--3---3---8--7--3---3---8--7-3--3---3-5-3-5-7-5--3------------|
B|----3-------------3---------------3----------------3----------|
G|--------------------------------------------------------------|
D|--------------------------------------------------------------|
A|--------------------------------------------------------------|
E|--------------------------------------------------------------|
Unconditional, unconditionally , I will love you unconditionally


e|--0--8-7--5--8--7---3----3--8--7--3------7-5-3--5--3-5-7--5--3--3--|
B|----------------------3--------------------------------------------|
G|-------------------------------------------------------------------|
D|-------------------------------------------------------------------|
A|-------------------------------------------------------------------|
E|-------------------------------------------------------------------|
And there is no fear now , Let go and just be free
'Cause I will love you unconditionally (oh yeah)


            x2           (I will love you)              (I will love you unconditionally)
e|--(3--0--3--5---3)-----(3--0--3--5----3)-----------------------5---7---5--7--7-----|
B|-----------------------------------------------------------------------------------|
G|-----------------------------------------------------------------------------------|
D|-----------------------------------------------------------------------------------|
A|-----------------------------------------------------------------------------------|
E|-----------------------------------------------------------------------------------|


HOPE YOU LIKE IT ;)
Tap to rate this tab
# A B C D E F G H I J K L M N O P Q R S T U V W X Y Z