Song name
# A B C D E F G H I J K L M N O P Q R S T U V W X Y Z

Katy Perry - Dark Horse tab

-------------------------------------------------------------------------------
                             Dark Horse  Katy Perry, Juicy J
-------------------------------------------------------------------------------
Tabbed by:EpicGuitarGuy13

Basically these are the main riffs for that instrument that does that kind of 
melody, you have to repeat the riffs roughly as many times as Ive said, but you 
can hear when it changes.


Intro riff:

e|-10-9-7---|---|-10--|
B|--------7-|---|-----|
G|----------|X14|-----|
D|----------|---|-----|
A|----------|---|-----|
E|----------|---|-----|

Verse riff:

e|-10-10-10-10-9-9-7----|---|
B|-------------------7--|---|
G|----------------------|X16|
D|----------------------|---|
A|----------------------|---|
E|----------------------|---|

Chorus/Build riff

e|---------|---|
B|---------|---|
G|-7-6-4---|X16|
D|-------4-|---|
A|---------|---|
E|---------|---|


Order:
Intro riff
Verse riff
Chorus/Build riff
Intro riff
Verse riff
Chorus/Build riff
Intro riff
Verse riff
Chorus/Build riff
Intro riff
Tap to rate this tab
 
# A B C D E F G H I J K L M N O P Q R S T U V W X Y Z