Song name
# A B C D E F G H I J K L M N O P Q R S T U V W X Y Z

Katy Rose - Vacation tab

Help us improve GuitareTab! Take a short survey!
#--------------------------------PLEASE NOTE-------------------------------#
#This file is the author's own work and represents their interpretation of the#
#song. You may only use this file for private study, scholarship, or research.#
#--------------------------------------------------------------------------#
#- File created with Instab - http://www.pconline.com/~smcarey/instab.html #
#--------------------------------------------------------------------------#

Author/Artist: The senseless
Title: Vacation
Transcribed by: Jaymz88
1 step down (DGCFAD)
Awesome song. I put all the riff of the song. Don't have the solo.
http://www.thesenseless.com/

----------------------------------------------------------------------------|
----------------------------------------------------------------------------|
----------------------------------------------------------------------------|
----------------------------------------------------------------------------|
----------------------------------------------------------------------------|
--0-0-9-0-0-11-0-0-12-0-0-16-0-0-11-0-0-12-0-0-11---0-0-9-0-0-11-0-0-12-0-0-|


---------------------------------------------------------------------------|
---------------------------------------------------------------------------|
---------------------------------------------------------------------------|
---------------------------------------------------------------------------|
---------------------------------------------------------------------------|
-16-0-0-11-0-0-12-0-0-11b--------------------------------------------------|


----------------------------------------------------------------------------|
----------------------------------------------------------------------------|
----------------------------------------------------------------------------|
--9---------9---------------9---------9-------------------------------------|
--7---------7---------------7---------7---------9-9-9-9---------------------|
-----7-7-7-----7-7-7--4--7-----7-7-7-----7-7-7------------------------------|
     - - -     - - -           - - -     - - -


----------------------------------------------------------------------------|
----------------------------------------------------------------------------|
----------------------------------------------------------------------------|
----------------------------------------------------------------------------|
----------------------------------------------------------------------------|
--0-0-9-0-0-11-0-0-12-0-0-16-0-0-11-0-0-12-0-0-11---0-0-9-0-0-11-0-0-12-0-0-|


---------------------------------------------------------------------------|
---------------------------------------------------------------------------|
---------------------------------------------------------------------------|
---------------------------------------------------------------------------|
---------------------------------------------------------------------------|
-16-0-0-11-0-0-12-0-0-11b--------------------------------------------------|


----------------------------------------------------------------------------|
----------------------------------------------------------------------------|
----------------------------------------------------------------------------|
--9---------9---------------9---------9-------------------------------------|
--7---------7---------------7---------7---------9-9-9-9---------------------|
-----7-7-7-----7-7-7--4--7-----7-7-7-----7-7-7------------------------------|
     - - -     - - -           - - -     - - -

----------------------------------------------------------------------------|
----------------------------------------------------------------------------|
----------------------------------------------------------------------------|
----------------------------------------------------------------------------|
----------------------------------------------------------------------------|
--0-0-9-0-0-11-0-0-12-0-0-16-0-0-11-0-0-12-0-0-11---0-0-9-0-0-11-0-0-12-0-0-|


---------------------------------------------------------------------------|
---------------------------------------------------------------------------|
---------------------------------------------------------------------------|
---------------------------------------------------------------------------|
---------------------------------------------------------------------------|
-16-0-0-11-0-0-12-0-0-11b--------------------------------------------------|


----------------------------------------------------------------------------|
----------------------------------------------------------------------------|
----------------------------------------------------------------------------|
--------------------------------------------------------9---9---------------|
----------2-----------2------------------2----------2---7---7---------------|
--4-4-4-4-0---4-4-4-4-0--2h4p2---4-4-4-4-0--4-4-4-4-0---7---7---------------|
  - - - -     - - - -            - - - -    - - - -


----------------------------------------------------------------------------|
----------------------------------------------------------------------------|
----------------------------------------------------------------------------|
-----------/11----------9------9----------/11-----------9-9-9-9-9-----------|
-----------/-9----------7------7----------/-9-----------7-7-7-7-7-----------|
--5-5-5-5--/-9--5-5-5-5-7--5-5-7--5-5-5-5-/-9--5-5-5-5----------------------|
  - - - -       - - - -    - -    - - - -      - - - -

----------------------------------------------------------------------------|
----------------------------------------------------------------------------|
----------------------------------------------------------------------------|
--9---------9---------------9---------9-------------------------------------|
--7---------7---------------7---------7---------9-9-9-9---------------------|
-----7-7-7-----7-7-7--4--7-----7-7-7-----7-7-7------------------------------|
     - - -     - - -           - - -     - - -


----------------------------------------------------------------------------|
----------------------------------------------------------------------------|
----------------------------------------------------------------------------|
----------------------------------------------------------------------------|
----------------------------------------------------------------------------|
--0-0-9-0-0-11-0-0-12-0-0-16-0-0-11-0-0-12-0-0-11---0-0-9-0-0-11-0-0-12-0-0-|


---------------------------------------------------------------------------|
---------------------------------------------------------------------------|
---------------------------------------------------------------------------|
---------------------------------------------------------------------------|
---------------------------------------------------------------------------|
-16-0-0-11-0-0-12-0-0-11b--------------------------------------------------|


After the solo
----------------------------------------------------------------------------|
----------------------------------------------------------------------------|
----------------------------------------------------------------------------|
--9---------------------9---------------------------------------------------|
--9---------------------9---------------------------------------------------|
--7---------------------7---------------------------------------------------|


----------------------------------------------------------------------------|
----------------------------------------------------------------------------|
---------8--6---------------------------------------------------------------|
------6--------8--6---------------------------------------------------------|
---6------------------------------------------------------------------------|
----------------------------------------------------------------------------|
Tremolo picking
Related for Vacation tab