Song name
# A B C D E F G H I J K L M N O P Q R S T U V W X Y Z

Kaukazus - 21 tab

Help us improve GuitareTab! Take a short survey!
Kaukzus - 21
Album: Amerika nem hazudik (2006)


e----------------------------------|
B----------------------------------|
G----------------------------------|
D-------------------2--------------|
A-------3----2h3-0-----------------|
E--0-1-----------------------------|

Ez a rsz megy egszen a "A Hadtrtneti Mzeumot majd elfoglaljk a partiznok" sorig.

Utna:

e----------------------------------|
B----------------------------------|
G----------------------------------|
D----------------------------------|
A-------3----2-0-------------------|
E--0-1-----------------------------|


Ez a rsz megy egszen a "Leszarjk, nem kivncsiak a Sziget Fesztivlra" sorig.

F                    Am
 sem a 41-ben kttt rkbarti szerződsre,
F                      Am
 sem az 56-ban prgtt pesti srcok emlkre,
F                      Am
 sem a puha diktatra kiszolglszemlyzetre,
F                             Am
 sem a rendszervlts győztes millirdos rtegre

 F           Am
 Nem hiszem, nem hiszem
 F
 nem hiszem, hogy 3:2-re,
 Am                      F
 nem hiszem, hogy 3:2-re győztek
             Am
 Lenyltk a nőket,
              F
 sosem hvtam őket,
                    Am
 ezek jttek lttak győztek..
           F
 nem hiszem...

Am F Am

Ksztette: vőneki dm
Elrhetősg: adam.voneki@yahoo.com
Related for 21 tab