Song name
# A B C D E F G H I J K L M N O P Q R S T U V W X Y Z

Kaveszunet - Hol Vagyok tab

Kaveszunet - Hol vagyok? (tabbed by Csaki Tamás e-mail:yetirepa@freemail.hu 
http://www.youtube.com/user/rastomass)


E:----0--0--------0--0-----------------3--3----------------------------------------------|
B:---3--3--------3--3-3----0--0-------0--0--0---2--2--3---3s5s3-3(3)---------------------|
G:---------------------0--0--0-----------------0--0--0--0-0-----0-0----1--1--2---1--1----|
D:--------------------------------------------------------------------2--2--2--2-2--2----|
A:--2--2---2-(2)---2--------------------------0--0--0--0---------------------------------|
E:----------------------3---3---3-(3)---3--3-------------------------0--0--0--0---0---0--|


E:----0--0--------0--0--------3--------3--3----------------------------------------------|
B:---3--3--------3--3-3----0-0--------0--0--0---2--2--3---3s5s3-3(3)---------------------|
G:---------------------0--0--------------------0--0--0--0-0-----0-0----1--1--2---1--1----|
D:--------------------------------------------------------------------2--2--2--2-2--2----|
A:--2--2---2--2----2--------------------------0--0--0--0---------------------------------|
E:----------------------3---3---3--3----3--3-------------------------0--0--0--0---0---0--|


E:----0--0--------0--0---------3-------3--3------------------------------|
B:---3--3--------3--3-3----0--0-------0--0--0---2--2--3---3s5s3-3(3)-----|
G:---------------------0--0--------------------0--0--0--0-0-----0-0------|
D:--------------------------------------------------------------------2--|
A:--2--2---2--2----2--------------------------0--0--0--0-----------------|
E:----------------------3---3---3--3----3--3-------------------------0---|

Akkordok:

    E  G  A sus4

E:--0--3--0----|
B:--0--0--3----|
G:--1--0--2----|
D:--2--0--2----|
A:--2--2--0----|
E:--0--3--x----|
Tap to rate this tab
# A B C D E F G H I J K L M N O P Q R S T U V W X Y Z