Song name
# A B C D E F G H I J K L M N O P Q R S T U V W X Y Z

Kavinsky - Protovision tab

Hi guys, I saw there was no tab for this so I gave it a shot
It's my first tab and I played this on very old strings so it may not be as
accurate as I'd like it to be. And typos may occur...
Comments are welcome, of course!
Enjoy!

-------------------------------------------------------------------------------
                            ProtoVision - Kavinsky
-------------------------------------------------------------------------------
Tabbed by: Amandine F.
E-mail: tutafay@live.fr  - dudewherearemydragons.tumblr.com

Tuning: Standard, EADGBE

First Part

e|-----21b23b21--21b23b21-21----11--13-14--16---18b19b18--16--14--20b22--18\13------|
B|----------------------------------------------------------------------------------|
G|----------------------------------------------------------------------------------|
D|----------------------------------------------------------------------------------|
A|----------------------------------------------------------------------------------|
E|----------------------------------------------------------------------------------|

e|---------14--13-----------------------------------------------------------------------|
B|---14------------14-------------------------------------------------------------------|
G|---------------------11~--------11-13-13/15-------------------------------------------|
D|---------------------------1313-------------------------------------------------------|
A|--------------------------------------------------------------------------------------|
E|--------------------------------------------------------------------------------------|

x2

Second Part - Guitar

e|---10b---12b---13b---12b-----------------------------------------------------|
B|-----------------------------------------------------------------------------|
G|-----------------------------------------------------------------------------|
D|-----------------------------------------------------------------------------|
A|-----------------------------------------------------------------------------|
E|-----------------------------------------------------------------------------|

x8

Third Part

e|--------------------------------------------------------------------------------------|
B|--------------------------------------------------------------------------------------|
G|---------------------------------------------------------------11-13-15~-13--11-10----|
D|-------13----------------13-16---15-------13--15--16----11-13-------------------------|
A|-13-16------------13-15--------------13-----------------------------------------------|
E|--------------------------------------------------------------------------------------|

e|--------------------------------------------------------------------------------------|
B|--------------------------------------------------------------------------------------|
G|--------------------11-13-15~--13--11--10-----------------------13-15-15/18~-15-15----|
D|-13-15-16----11-13----------------------------13-15-16---13-16------------------------|
A|--------------------------------------------------------------------------------------|
E|--------------------------------------------------------------------------------------|

Fourth Part

e|----10b--12b--13b--12b----10b--12b--13b--17b------------------------------------|
B|--------------------------------------------------------------------------------|
G|--------------------------------------------------------------------------------|
D|--------------------------------------------------------------------------------|
A|--------------------------------------------------------------------------------|
E|--------------------------------------------------------------------------------|

x4

e|----10b--12b--13b--12b--------------------------------------------------------|
B|------------------------------------------------------------------------------|
G|------------------------------------------------------------------------------|
D|------------------------------------------------------------------------------|
A|------------------------------------------------------------------------------|
E|------------------------------------------------------------------------------|

once, and...

Final Part

e|-----21b23b21--21b23b21-21----11--13-14--16---18b19b18--16--14--20b22--18\13------|
B|----------------------------------------------------------------------------------|
G|----------------------------------------------------------------------------------|
D|----------------------------------------------------------------------------------|
A|----------------------------------------------------------------------------------|
E|----------------------------------------------------------------------------------|

e|---------14--13-----------------------------------------------------------------------|
B|---14------------14--------------------------------13b15--11--------------------------|
G|---------------------11~--------11-13-13/15------------------11~~~~~~~~13b15----------|
D|---------------------------1313-------------------------------------------------------|
A|--------------------------------------------------------------------------------------|
E|--------------------------------------------------------------------------------------|

e|-----------------------------------22b------------------------------------------------|
B|------------------------------21b-----------------------------------------------------|
G|-------11-13-15-18-19b-19b------------------------------13-15-15/18~-15-15------------|
D|---13------------------------------13-15-16-----13-16---------------------------------|
A|--------------------------------------------------------------------------------------|
E|--------------------------------------------------------------------------------11----|



************************************

| /   slide up
| \   slide down
| ~   vibrato
| b   Bend

************************************
Tap to rate this tab
# A B C D E F G H I J K L M N O P Q R S T U V W X Y Z