Song name
# A B C D E F G H I J K L M N O P Q R S T U V W X Y Z

Kavinsky - Blizzard tab

-------------------------------------------------------------------------------
                             BLIZZARD - Kavinsky
-------------------------------------------------------------------------------
Tabbed by: ivcosan
E-mail: biacko.ivan@gmail.com

Tuning: standard

e|-------10-9------------------|
B|-12-12------12-10------------|
G|------------------12-11-9----|
D|--------------------------12-|
A|-----------------------------|
E|-----------------------------|

Play throughout the whole song.
Tap to rate this tab
# A B C D E F G H I J K L M N O P Q R S T U V W X Y Z