Song name
# A B C D E F G H I J K L M N O P Q R S T U V W X Y Z

Kavinsky - Nightcall tab

Kavinsky - Nightcall
Tuning: Standard


Verse/Intro:

  Am                  G/B              F                Dm
e|-----8------8------|----7-----7-----|----5-----5-----|----5-----5-----|
B|--10-----10-----10-|--8-----8-----8-|--6-----6-----6-|--6-----6-----6-|
G|9------9------9----|7-----7-----7---|5-----5-----5---|7-----7-----7---|
D|-------------------|----------------|----------------|----------------|
A|-------------------|----------------|----------------|----------------|
E|-------------------|----------------|----------------|----------------|


Chorus/Outro:

  F                      G                        Em               F
e|------8-------8-------|------10-------10-------|----7-----7-----|------8-------8-------|
B|---10------10------10-|---12-------12-------12-|--8-----8-----8-|---10------10------10-|
G|10------10------10----|12-------12-------12----|9-----9-----9---|10------10------10----|
D|----------------------|------------------------|----------------|----------------------|
A|----------------------|------------------------|----------------|----------------------|
E|----------------------|------------------------|----------------|----------------------|


Intro (2x)
Verse (4x)
Chorus (4x)
Verse (4x)
Chorus (4x)
[Bridge]
Outro (4x)
Tap to rate this tab
 
# A B C D E F G H I J K L M N O P Q R S T U V W X Y Z