Song name
# A B C D E F G H I J K L M N O P Q R S T U V W X Y Z

Kawalek Kulki - Cola Lego tab

e-----------------|
H-----------------|
G-----2-5-----5-2-|
D---2-----4-5-----|
A-0---------------|
E-----------------|
cola moja wola jest
to ego czlowieka z lego

C    D    Am   G  Am
wino usta kino smiech

Am
cola moja wola jest
C
to ego czlowieka
G
z lego
F     F  G
wino, usta

e---5-----3-----------------------|
H-----5-----5---5-0---3-0---1-0---|
G-2-----2-----2-----2-----2-----0-|
D---------------------------------|
A---------------------------------|
E---------------------------------|
smiech!

zakonczenie:
a G x4
a
Tap to rate this tab
 
# A B C D E F G H I J K L M N O P Q R S T U V W X Y Z