Song name
# A B C D E F G H I J K L M N O P Q R S T U V W X Y Z

Kawalek Kulki - Swiatlo Cieniem tab

poczatek:

   A                   E
e:---------5-----------------------------|
H:-5--7-5-----7--5-7-5---------5---------|
G:---------------------4--6-4-----6--4-6-|
D:---------------------------------------|
A:---------------------------------------|
E:---------------------------------------|
swiatlo cieniem wykleilo sciany jak wycinanka


   G#m       A         G#m       A
e:-4-------------------4-----------------|
H:-----4-----4--5-4--------4-----4--5-4--|
G:--------6-------------------6----------|
D:---------------------------------------|
A:---------------------------------------|
E:---------------------------------------|
w powietrzu zwatpienie nie daje odetchnac zachcianka


E                      A
na oblodzonych dachach slizgamy sie na lyzwach
B                  A
palimy fajki marki potwor & haj
E                      A
na oblodzonych dachach slizgamy sie na lyzwach
B                  A
palimy fajki marki nowotwor & haj


G#m A x8


  E7...
e:-2-------3-2---------------------------|
H:---3---------3-------------5---5-5-5-5-|
G:-----4---------4--2--4-----------------|
D:------------------------2--------------|
A:---------------------------------------|
E:---------------------------------------| 
  parapam pararara pa pam pa pam papapapa x5


solo:
(szybko grane, powtarzane poszczegolne nuty)

  E7...
e:-7------8---7-----5-----------------5--|
H:----------------8-----8---5---5-8------|
G:---------------------------------------|
D:---------------------------------------|
A:---------------------------------------|
E:---------------------------------------|
  E7...
e:-7------8---7---12---------------------|
H:---------------------------------------|
G:---------------------------------------|
D:---------------------------------------|
A:---------------------------------------|
E:---------------------------------------| x2


zakonczenie:

   E7...
e:----------------------------------------------|
H:-9--9----9--9----9-9----9--9----9--9----9-8-7-|
G:-7--7----7--7----7-7----7--7----7--7----9-8-7-|
D:-9--9----9--9----9-9----9--9----9--9----------|
A:-7--7----7--7----7-7----7--7----7--7----------|
E:----------------------------------------------|
Tap to rate this tab
# A B C D E F G H I J K L M N O P Q R S T U V W X Y Z