Guitaretab - guitar tabs
Song name
# A B C D E F G H I J K L M N O P Q R S T U V W X Y Z

Kay Hanley - Stay Stay tab

-----------------------------------------------------------------------------
			     STAY STAY - Kay Hanley
-----------------------------------------------------------------------------
Tabbed by:Mick Molloy
Email:rangga@y7mail.com

Tuning:Standard


INTRO
G Gm Gbm C D


VERSE
G                    Gm  Gbm
  Itís not too late
C                D 
  Are we finally getting somewhere?
G                       Gm  Gbm
  Say itís not too late
C               D 
  Iím doing the best that i can


PRE-CHORUS
C    D
Stay stay
G               Gm Gbm
Name the monsoon
C         D 
My loveís a stormy afternoon


VERSE
G                      Gm Gbm 
There was an empty room
C                 D
Waiting for me to fill it up
G              Gm Gbm
But when i did
C              D
I guess it was never enough


PRE-CHORUS
C    D
Stay stay
G               Gm Gbm
Name the monsoon
C         D 
My loveís a stormy afternoon


CHORUS
    A        G  C Cadd9 D        Dsus  D D5II D

e|--0--0--0--3--0--0----2--2--2--3--3--2--0--2---|
B|--2--2--2--3--1--3----3--3--3--3--3--3--3--3---|
G|--2--2--2--0--0--0----2--2--2--2--2--2--2--2---|
D|--2--2--2--0--2--2----0--0--0--0--0--0--0--0---|
A|--0--0--0--2--3--3-----------------------------|
E|-----------3--0--0-----------------------------|Repeat 3 times
    Stay,               Stay,
    Stay,               Stay,
    Stay,               Stay,
    And dont let go[Don't play any chords on this line]

SOLO
e|--3--------3--7--7\\\\2--------3--------3--7--7--8\\\\5-----------------|
B|------------------------------------------------------------------------|
G|------------------------------------------------------------------------|
D|------------------------------------------------------------------------|
A|------------------------------------------------------------------------|
E|------------------------------------------------------------------------|
[ Tab from: http://www.guitaretab.com/k/kay-hanley/188763.html ]
e|--3--------3--7--7////10-------12b----15b---12--15p12h15--12b\\\\10-10--|
B|------------------------------------------------------------------------|
G|------------------------------------------------------------------------|
D|------------------------------------------------------------------------|
A|------------------------------------------------------------------------|
E|------------------------------------------------------------------------|

e|--3--7p3--3/8--7---5---2/3----------------------------------------------|
B|------------------------------------------------------------------------|
G|------------------------------------------------------------------------|
D|------------------------------------------------------------------------|
A|------------------------------------------------------------------------|
E|------------------------------------------------------------------------|

PRE-CHORUS
CHORUSx2
CHORUS[With the folowing riff]
e|---7-----5----3----5----2----------0--2--3--5----------------|
B|-------------------------------------------------------------|
G|-------------------------------------------------------------|
D|-------------------------------------------------------------|
A|-------------------------------------------------------------|
E|-------------------------------------------------------------|repeat and fade
| /  slide up
| \  slide down
| h  hammer-on
| p  pull-off
| ~  vibrato
| +  harmonic
| x  Mute note
===============================================================================
CHORDS USED

  G        Gm       Gbm      C       D        Dsus     D5II     Cadd9

e|-3-    e|-2-    e|-1-    e|-0-    e|-2-    e|-3-    e|-0-    e|-0-
B|-3-    B|-2-    B|-1-    B|-1-    B|-3-    B|-3-    B|-3-    B|-3-
G|-0-    G|-2-    G|-1-    G|-0-    G|-2-    G|-2-    B|-2-    G|-0-
D|-0-    D|-4-    D|-3-    D|-2-    D|-0-    D|-0-    D|-0-    D|-2-
A|-2-    A|-4-    A|-3-    A|-3-    A|---    A|---    A|---    A|-3-
E|-3-    E|-2-    E|-1-    E|-0-    E|---    E|---    E|---    E|-0-

Enjoy. this isn't necessarily correct, but its how i play it.
Related for Stay Stay tab