Song name
# A B C D E F G H I J K L M N O P Q R S T U V W X Y Z

Kazik - Artysci tab

-------------------------------------------------------------------------------
			     ARTYSCI - Kazik
-------------------------------------------------------------------------------

Tabbed by: Loco1989
Email: infernaloco@gmail.com

Tuning: EADGBe



  ==============PM==================
e|----------------------------------|
B|----------------------------------|
G|----------------------------------|
D|----------------------------------|
A|----------------------------------|
E|-6-8-9-5-8-9-6-8-9-5-8-9-6-8-10-8-| x4



e|-------------2/4p2-----|
B|-----------------------|
G|-----------------------|
D|---------1-----------0-|
A|-3---1-----------------|
E|-----------------------| x4



e|--------------4-----|
B|--------------4-----|
G|----------8-------7-|
D|-10---8---8-------7-|
A|-10---8---6-------5-|
E|--8---6-------------| x8



e|-------------2/4p2-----|
B|-----------------------|
G|-----------------------|
D|---------1-----------0-|
A|-3---1-----------------|
E|-----------------------| x4



e|--------------------|
B|--------------------|
G|--------------------|
D|---------1--------0-|
A|-3---1--------------|
E|-------------18-----| x4



e|--------------4-----|
B|--------------4-----|
G|----------8-------7-|
D|-10---8---8-------7-|
A|-10---8---6-------5-|
E|--8---6-------------| x8



e|-------------2/4p2-----|
B|-----------------------|
G|-----------------------|
D|---------1-----------0-|
A|-3---1-----------------|
E|-----------------------| x4



e|--------------------|
B|--------------------|
G|--------------------|
D|---------1--------0-|
A|-3---1--------------|
E|-------------18-----| x4



Here comes the solo which is just sliding guitar on a mike-stand... ;)



e|--------------4-----|
B|--------------4-----|
G|----------8-------7-|
D|-10---8---8-------7-|
A|-10---8---6-------5-|
E|--8---6-------------| x8



e|-------------2/4p2-----|
B|-----------------------|
G|-----------------------|
D|---------1-----------0-|
A|-3---1-----------------|
E|-----------------------| x4



e|--------------------|
B|--------------------|
G|--------------------|
D|---------1--------0-|
A|-3---1--------------|
E|-------------18-----| x4



e|-------------2/4p2-------|
B|-------------------------|
G|-------------------------|
D|---------1-----------0-0-|
A|-3---1-------------------|
E|-------------------------| x2



e|-------------4-|
B|---------------|
G|---------------|
D|---------1-----|
A|-3---1---------|
E|---------------|



************************************

| /   slide up
| \   slide down
| h   hammer-on
| p   pull-off
| ~   vibrato
| +   harmonic
| x   Mute note
| b   Bend
| pb  Pre-bend
| br  Bend release
| pbr Pre-bend release
| brb Bend release bend

************************************
Tap to rate this tab
# A B C D E F G H I J K L M N O P Q R S T U V W X Y Z