Song name
# A B C D E F G H I J K L M N O P Q R S T U V W X Y Z

Kazimir Stubitsch - Is There Anyone There tab

Is There Anyone There?
Kazimir Stubitsch


There is one main riff to this song. But there are in total
2 guitar solos and a bass solo.  Although this song was
never really 100% completed its still a fucking great song.


Intro:(picking)
E|------------4---------6---------7---------4--------|
B|----------6---------6---------7---------4----------|
G|--------6---------5---------6---------3------------|
D|------5---------4----------5---------2-------------|
A|-----4---------4----------5---------2--------------|
D|---4---------4----------5---------2----------------|

Verse: (PM)
E|----4----6----7----4----|
B|----6----6----7----4----|
G|----6----5----6----3----|
D|----5----4----5----2----|
A|----4----4----5----2----|
e|----4----4----5----2----|

Chorus:(Heavy Distortion + Buzz Box)
E|----4----6----7----4----|
B|----6----6----7----4----|
G|----6----5----6----3----|
D|----5----4----5----2----|
A|----4----4----5----2----|
D|----4----4----5----2----|

Outtro:(picking w/ distortion)
E|------------4---------6---------7---------4--------|
B|----------6---------6---------7---------4----------|
G|--------6---------5---------6---------3------------|
D|------5---------4----------5---------2-------------|
A|-----4---------4----------5---------2--------------|
D|---4---------4----------5---------2----------------|


Order:

Intro x 1
Verse x 2
Chorus x 1
Solo(#1) x 1  <----(if not chorus x 1 will do)
Verse x 2
Chorus x 2
Guitar and Bass Solo x 2
Chorus x 2
Outro x 1
Tap to rate this tab
# A B C D E F G H I J K L M N O P Q R S T U V W X Y Z