Guitaretab - guitar tabs
Song name
# A B C D E F G H I J K L M N O P Q R S T U V W X Y Z

Kealii Reichel - Maunaleo tab

couldn't find the tabs anywhere online. so i decided to do it myself. most of it is 
accurate. please make any suggestions if im wrong. pretty easy to learn. its basically the 
verse, intro, verse...etc. enjoy!


Intro

----2-----------0------------------2-------------0--------|
---3---3-------3----3-------------3-----3-------3---------|
--0---0-0-----0----0-0-----------0-------0-----0----------|
----------------------------------------------------------|
------------3--------------------------------3------------|
3-----------------------------3---------------------------|

Verse
[ Tab from: http://www.guitaretab.com/k/kealii-reichel/86556.html ]
----2-----------0------------------2-----------------2h3--|
---3---3-------3----3-------------3---3-------3---------3-|
--0---0-0-----0----0-------------0---0-0-----0-0---2------|
--------------------------------------------------0-------|
------------3------------------------------3--------------|
3-----------------------------3---------------------------|

----2-----------0----------------------------------0-----|
---3---3-------3----3---------0-------3-----------3---3--|
--0---0-0-----0----0-0---------------0-0---------0---0---|
----------------------------2--2-------------------------|
------------3--------------2--------0-----------3--------|
3--------------------------------------------------------|

-------------------------0------------------------|
----0--------3----------3-------------------------|
------------0-0--------0--------------------------|
--2--2--------------------------------------------|
-2--------0----------3----------------------------|
--------------------------------------------------|


2007 karaKarabow


http://www.kealiireichel.com/
Related for Maunaleo tab