Song name
# A B C D E F G H I J K L M N O P Q R S T U V W X Y Z

Keane - Everybodys Changing tab

this my new tab.. n yeah this song is about 2 years ago..
enjoy

intro

|---------------------------------------|
|---------------------------------------|
|---------------------------------------|
|---------------------------------------|
|--13-13-13-12-12-12----------12-12-12--|
|--------------------12-12-12-----------| 2x

|--------------------------------------|
|--------------------------------------|
|--------------------------------------|
|--------------------------------------|
|--13-13-13-12-12-12----------12-12-12-|
|--------------------13-13-13----------|

|-----------------------------------------|
|-----------------------------------------|
|-----------------------------------------|
|-----------------------------------------|
|--13-13-13-12-12-12----------12-12-12-13-|
|--------------------12-12-12-------------|

You say you wander your own land
But when I think about it
I don't see how you can

|-----------------------------------------|
|-----------------------------------------|
|-----------------------------------------|
|-----------------------------------------|
|--13-13-13-12-12-12----------12-12-12-13-|
|--------------------12-12-12-------------|

You're aching, you're breaking
And I can see the pain in your eyes
Since everybody's changing
And I don't know why.

|-----------------------------------------|
|-----------------------------------------|
|-----------------------------------------|
|--------------------------------------14-|
|--13-13-13-12-12-12-13-13-13-12-12-12----|
|-----------------------------------------|

So little time
Try to understand that I'm
Trying to make a move just to stay in the game
I try to stay awake and remember my name
But everybody's changing
And I don't feel the same.

|--------------------------------------|
|--------------------------------------|
|--------------------------------------|
|--------------------------------------|
|--13-13-13-12-12-12----------12-12-12-|
|--------------------12-12-12----------|

|-----------------------------------------------------------------------------|
|-----------------------------------------------------------------------------|
|-----------------------------------------------------------------------------|
|-----------------------------------------------------------------------------|
|--15-15-15-12-12-12-15-15-15-12-12-12-15-15-15-12-12-12----------12-12-12-13-|
|--------------------------------------------------------13-13-13-------------|

You're gone from here
Soon you will disappear
Fading into beautiful light
'cause everybody's changing
And I don't feel right.


|-----------------------------------------|
|-----------------------------------------|
|-----------------------------------------|
|--------------------------------------14-|
|--13-13-13-12-12-12-13-13-13-12-12-12----|
|-----------------------------------------|

So little time
Try to understand that I'm
Trying to make a move just to stay in the game
I try to stay awake and remember my name
But everybody's changing
And I don't feel the same.

-solo

|---------------------------------------|
|---------------------------------------|
|---------------------------------------|
|---------------------------------------|
|--13-13-13-12-12-12----------12-12-12--|
|--------------------12-12-12-----------| 2x

|--------------------------------------|
|--------------------------------------|
|--------------------------------------|
|--------------------------------------|
|--13-13-13-12-12-12----------12-12-12-|
|--------------------13-13-13----------|

|-----------------------------------------|
|-----------------------------------------|
|-----------------------------------------|
|-----------------------------------------|
|--13-10-12-13-12-13-15-13-15-17----------|
|--------------------------------13-15-17-|

So little time
Try to understand that I'm
Trying to make a move just to stay in the game
I try to stay awake and remember my name
But everybody's changing
And I don't feel the same.

|-----------------------------------------|
|-----------------------------------------|
|-----------------------------------------|
|-----------------------------------------|
|--13-13-13-12-12-12-13-13-13-12-12-12-13-|
|-----------------------------------------|

Ooo...
Everybody's changing
And I don't feel the same.
Tap to rate this tab
# A B C D E F G H I J K L M N O P Q R S T U V W X Y Z