Song name
# A B C D E F G H I J K L M N O P Q R S T U V W X Y Z

Keane - You Havent Told Me Anything tab

This is my first tab, i got it from watching Tom play it live, so i'm 99.9% sure it's right!

e-----------------------------------------------------|
b-----------------------------------------------------|
g-----8--10--------8--10-------------------------8-10-|
d--10-------8-8-10--------8-8-8-10-8-8--8--8-8-10-----|
a-----------------------------------------------------|
e-----------------------------------------------------|


e-----------------------------------------------------|
b-----------------------------------------------------|
g----------8--10--------8--10-------------------------|
d 8-8-8-10-------8-8-10--------8-8-8-10-6-6--6--6-6-6-|
a-----------------------------------------------------|
e-----------------------------------------------------|

OPTIONAL: At end of song replace last 6 with 6^7--7\4--2

ENJOY!
Tap to rate this tab
 
# A B C D E F G H I J K L M N O P Q R S T U V W X Y Z