Song name
# A B C D E F G H I J K L M N O P Q R S T U V W X Y Z

Keane - Sunshine tab

Artist: Keane
Song: Sunshine
Tabbed by: Dave Grayhl
Tuning: standard with CAPO on 2nd fret

INTRO:
e|-||--5---5--5--5--)------5---------5------------5------5-------------|
B|-||--6---6--6--6--)----6---6-6----6-6-10-6-6---6-6-6--6-6-10-6-6-----|
G|-||--7---6--5--6--)-7-------7----6--------6---5---5--6--------6------|(X2)
D|-||--0---0--0--0--)--------------------------------------------------|
A|-||---------------)--------------------------------------------------|
E|-||---------------)--------------------------------------------------|


VERSO:
e|-||----5-------------5----------------5---------5---------------------|
B|-||----6-------------6----------------6---------6---------------------|
G|-||----7-------------6----------------5---------6---------------------|
D|-||----0-------------0----------------0---------0---------------------|
A|-||-------------------------------------------------------------------|
E|-||-------------------------------------------------------------------|
I hold you in my hands             A little animal
(2nd) I hold you in cupped hands ad shield you from a storm



e|-||------5---------------5-----------------5-------3------------------|
B|-||------6---------------6-----------------6-------3------------------|
G|-||------7---------------6-----------------5-------4------------------|
D|-||------0---------------0-----------------0-------5------------------|
A|-||------------------------------------------------5------------------|
E|-||------------------------------------------------3------------------|
      And only some dumb idiot            Would let you go 


e|-||-----3----------------0--------3--------------------3--------------|
B|-||-----3----------------1--------3--------------------4--------------|
G|-||-----3----------------0--------3--------------------5--------------|
D|-||-----5----------------2--------5--------------------6--------------|
A|-||-----5----------------3--------5-----------------------------------|
E|-||-----3-------------------------3-----------------------------------|
But if I'm one thing                Then that's the one thing



CORO:
e|-||------------0--------0------------------0---------------0----------|
B|-||------------1--------0------------------1---------------3----------|
G|-||------------0--------0------------------2---------------5----------|
D|-||------------2--------2------------------2---------------6----------|
A|-||------------3--------3------------------0--------------------------|
E|-||-------------------------------------------------------------------|
       I should know Can anybody find their home
Out of everyone Can anybody find their home
Tap to rate this tab
# A B C D E F G H I J K L M N O P Q R S T U V W X Y Z