Guitaretab - guitar tabs
Song name
# A B C D E F G H I J K L M N O P Q R S T U V W X Y Z

Keane - Somewhere Only We Know tab

Keane
Somewhere Only We Know

This is correct even though it is my first tab
I have checked this so many times
And Iíve had my friends check it too
Please Rate well


Intro

|-----------|----------|----------|-00000000-|
|-----------|----------|----------|-00000000-|
|-222222222-|-22222222-|-22222222-|-22221122-|
|-222222222-|-22200022-|-00000000-|-22222222-|
|-000000000-|----------|-22222222-|-22222222-|
|-----------|-44444444-|----------|-00000000-|

|-----------|----------|----------|-00000000-|
|-----------|----------|----------|-00000000-|
|-222222222-|-22222222-|-22222222-|-22221122-|
|-222222222-|-22200022-|-00000000-|-22222222-|
|-000000000-|----------|-22222222-|-22222222-|
|-----------|-44444444-|----------|-00000000-|


Verse 1

|-00000000-|-00000000-|-22222222-|-00000000-|
|-22222222-|-22200022-|-33333333-|-00000000-|
|-22222222-|-22211122-|-44444444-|-22221111-|
|-22222222-|-22200022-|-44444444-|-22222222-|
|-00000000-|----------|-22222222-|-22222222-|
|----------|-44444444-|----------|-00000000-|

|-00000000-|-00000000-|-22222222-|-00000000-|
|-22222222-|-22200022-|-33333333-|-00000000-|
|-22222222-|-22211122-|-44444444-|-22221111-|
|-22222222-|-22200022-|-44444444-|-22222222-|
|-00000000-|----------|-22222222-|-22222222-|
|----------|-44444444-|----------|-00000000-|


Chorus

|-22222222-|-4440044-|-55555555-|-77770000-|
|-22222222-|-5552255-|-77777777-|-77770000-|
|-22222222-|-6662266-|-77777777-|-77772211-|
|-44444444-|-6662266-|-77777777-|-77770000-|
|-44444444-|-4444444-|-55555555-|-55552222-|
|-22222222-|---------|----------|-----0000-|


|-22222222-|-4440044-|-55555555-|-77770000-|
|-22222222-|-5552255-|-77777777-|-77770000-|
|-22222222-|-6662266-|-77777777-|-77772211-|
|-44444444-|-6662266-|-77777777-|-77770000-|
|-44444444-|-4444444-|-55555555-|-55552222-|
|-22222222-|---------|----------|-----0000-|


Verse 2

|-----------|----------|-22222222-|-00000000-|
|-----------|----------|-33333333-|-00000000-|
|-222222222-|-22222222-|-22222222-|-22211122-|
|-222222222-|-22200022-|-44444444-|-00000000-|
|-000000000-|----------|-22222222-|-22222222-|
|-----------|-44444444-|----------|-00000000-|

|-----------|----------|-22222222-|-00000000-|
|-----------|----------|-33333333-|-00000000-|
|-222222222-|-22222222-|-22222222-|-22211122-|
|-222222222-|-22200022-|-44444444-|-00000000-|
|-000000000-|----------|-22222222-|-22222222-|
|-----------|-44444444-|----------|-00000000-|


Chorus

|----------|----------|-55555555-|-77770000-|
|----------|----------|-77777777-|-77770000-|
|----------|-66666666-|-77777777-|-77772211-|
|-22222222-|-66677766-|-77777777-|-77770000-|
|-22222222-|-44444444-|-55555555-|-55552222-|
|-11111111-|----------|----------|-----0000-|
[ Tab from: http://www.guitaretab.com/k/keane/48579.html ]
|----------|----------|-55555555-|-77770000-|
|----------|----------|-77777777-|-77770000-|
|----------|-66666666-|-77777777-|-77772211-|
|-22222222-|-66677766-|-77777777-|-77770000-|
|-22222222-|-44444444-|-55555555-|-55552222-|
|-11111111-|----------|----------|-----0000-|


Verse 3

|-22222222-|-00000000-|-22222222-|-00000000-|
|-33333333-|-22222222-|-33333333-|-22222222-|
|-22222222-|-44444444-|-33333333-|-22222222-|
|-44444444-|-22222222-|-44444444-|-22222222-|
|-22222222-|-44440000-|-22222222-|-44440000-|
|----------|-----0000-|----------|-----0000-|

|-22222222-|-00000000-|-77777777-|-44444444-|
|-33333333-|-22222222-|-77777777-|-55555555-|
|-33333333-|-22222222-|-77777777-|-66666666-|
|-44444444-|-22222222-|-77777777-|-66666666-|
|-22222222-|-44440000-|-55555555-|-44444444-|
|----------|-----0000-|----------|-00000000-|

|-77777777-|-99999999-|
|-77777777-|-99999999-|
|-77777777-|-99999999-|
|-77777777-|-99999999-|
|-55555555-|-77777777-|
|----------|----------|


Interlude

|-77777777-|-99992222-|
|-77777777-|-99993333-|
|-77777777-|-99994444-|
|-77777777-|-99994444-|
|-55555555-|-77772222-|
|----------|-----0000-|

Chorus

|----------|----------|-55555555-|-77770000-|
|----------|----------|-77777777-|-77770000-|
|----------|-66666666-|-77777777-|-77772211-|
|-22222222-|-66677766-|-77777777-|-77770000-|
|-22222222-|-44444444-|-55555555-|-55552222-|
|-11111111-|----------|----------|-----0000-|

|----------|----------|-55555555-|-77770000-|
|----------|----------|-77777777-|-77770000-|
|----------|-66666666-|-77777777-|-77772211-|
|-22222222-|-66677766-|-77777777-|-77770000-|
|-22222222-|-44444444-|-55555555-|-55552222-|
|-11111111-|----------|----------|-----0000-|


Verse 4/Outro

|-22222222-|-00000000-|-22222222-|-00000000-|
|-33333333-|-22222222-|-33333333-|-22222222-|
|-22222222-|-44444444-|-33333333-|-22222222-|
|-44444444-|-22222222-|-44444444-|-22222222-|
|-22222222-|-44440000-|-22222222-|-44440000-|
|----------|-----0000-|----------|-----0000-|

|-22222222-|-00000000-|-77777777-|-44444444-|
|-33333333-|-22222222-|-77777777-|-55555555-|
|-33333333-|-22222222-|-77777777-|-66666666-|
|-44444444-|-22222222-|-77777777-|-66666666-|
|-22222222-|-44440000-|-55555555-|-44444444-|
|----------|-----0000-|----------|-00000000-|

|-77777777-|-22224444-|-22222222-|-00000000-|
|-77777777-|-33335555-|-33333333-|-22222222-|
|-77777777-|-22226666-|-22222222-|-44444444-|
|-77777777-|-44446666-|-44444444-|-22222222-|
|-55555555-|-22224444-|-22222222-|-44440000-|
|----------|-----0000-|-00000000-|-00000000-|

|-22222222-|-00000000-|-22222222-|-00000000-|
|-33333333-|-22222222-|-33333333-|-22222222-|
|-22222222-|-44444444-|-22222222-|-44444444-|
|-44444444-|-22222222-|-44444444-|-22222222-|
|-22222222-|-44440000-|-22222222-|-44440000-|
|----------|-00000000-|----------|-00000000-|

|-77777777-|-99999998-|-77777777-|-9-9-7-2--|
|-77777777-|-99999998-|-77777777-|-9-9-7-3--|
|-77777777-|-99999998-|-77777777-|-9-9-7-2--|
|-77777777-|-99999998-|-77777777-|-9-9-7-0--|
|-55555555-|-77777776-|-55555555-|-7-7-5----|
|----------|----------|----------|----------|

|-0--------|
|-2--------|
|-2--------|
|-2--------|
|-0--------|
|----------|

Happy Playing!
Related for Somewhere Only We Know tab