Song name
# A B C D E F G H I J K L M N O P Q R S T U V W X Y Z

Keane - Everybodys Changing tab

Artist: Keane
Song: Everybody's Changing
Album: Hopes And Fears
Tabbed by: José D. Montenegro
Tuning: Standard (EADGBe)

Well, I'm trying to play it in the keyboard but to me this sounds nice for the guitar,
try it… Keane rocks!!!

Intro: [its finger style… or something like that, you know…]

e|---------|---------|--0---0--|---------|
B|--1---1--|--0---0--|---------|--0---0--|
G|----0----|----0----|----0----|----0----|
D|---------|---------|---------|---------|
A|--3------|--3------|--3------|--3------|
E|---------|---------|---------|---------|

e|---------|---------|--0---0--|---------|
B|--1---1--|--0---0--|---------|--0---0--|
G|----0----|----0----|----0----|----0----|
D|--3------|--3------|--3------|--3------|
A|---------|---------|---------|---------|
E|---------|---------|---------|---------|

e|---------|---------|--1---1--|---------|
B|--1---1--|--0---0--|---------|--0---0--|
G|----0----|----0----|----0----|----0----|
D|--0------|--0------|--0------|--0------|
A|---------|---------|---------|---------|
E|---------|---------|---------|---------|

e|---------|---------|--0---0--|---------|
B|--1---1--|--0---0--|---------|--0---0--|
G|----0----|----0----|----0----|----0----|
D|---------|---------|---------|---------|
A|--3------|--3------|--3------|--3------|
E|---------|---------|---------|---------|

Verse: [There's only a synthesizer but with these chords you can play some arpeggios…
Or would also be nice if one guitar play the chord and another the arpeggios… just 
my opinion]

Chords:
     C  G  A  F  Dm Em7
e|---0--3--0--1--1--0---|
B|---1--0--2--1--3--3---|
G|---0--0--2--2--2--0---|
D|---2--0--2--3--0--2---|
A|---3--2--0--3-----2---|
E|------3-----1-----0---|

>Verse I:
C                        F
 You say you wander your own land
     Dm                      G
But when I think about it I don't see how you can…

e|---------|---------|--0---0--|---------|
B|--1---1--|--0---0--|---------|--0---0--|
G|----0----|----0----|----0----|----0----|
D|---------|---------|---------|---------|
A|--3------|--3------|--3------|--3------|
E|---------|---------|---------|---------|

       C                           F
You're aching, you're breaking and I can see the pain in your eyes
      Dm                       G
Says "Everybody's changing and I don't know why…"

e|---------|---------|
B|--1---1--|--0---0--| x2
G|----0----|----0----|
D|---------|---------|
A|--3------|--3------|
E|---------|---------|

>Chorus:
F           G   C                       F
So little time, try to understand that I'm
Dm                             G                   Em7                     A
Trying to make a move just to stay in the game, I try to stay awake and remember my name
    Dm                       G 
But everybody's changing and I don't feel the same…

e|---------|---------|--0---0--|---------|
B|--1---1--|--0---0--|---------|--0---0--|
G|----0----|----0----|----0----|----0----|
D|---------|---------|---------|---------|
A|--3------|--3------|--3------|--3------|
E|---------|---------|---------|---------|

e|---------|---------|    |--1---1--|---------|
B|--3---3--|--0---0--| x3 |---------|--0---0--|
G|----0----|----0----|    |----0----|----0----|
D|---------|---------|    |---------|---------|
A|--3------|--3------|    |--3------|--3------|
E|---------|---------|    |---------|---------|

>Verse II:
       C                                        F
You're gone from here, soon you will disappear, fading into beautiful light
       Dm                       G
'Cause everybody's changing and I don't feel right…

Chorus:
F           G   C                       F
So little time, try to understand that I'm
Dm                             G                   Em7                     A
Trying to make a move just to stay in the game, I try to stay awake and remember my name
      Dm                        G 
But everybody's changing and I don't feel the same…

Bridge:
e|---------|---------|--0---0--|---------|
B|--1---1--|--0---0--|---------|--0---0--|
G|----0----|----0----|----0----|----0----|
D|---------|---------|---------|---------|
A|--3------|--3------|--3------|--3------|
E|---------|---------|---------|---------|

e|---------|---------|--0---0--|---------|
B|--1---1--|--0---0--|---------|--0---0--|
G|----0----|----0----|----0----|----0----|
D|--3------|--3------|--3------|--3------|
A|---------|---------|---------|---------|
E|---------|---------|---------|---------|

e|---------|---------|--1---1--|---------|
B|--1---1--|--0---0--|---------|--0---0--|
G|----0----|----0----|----0----|----0----|
D|--0------|--0------|--0------|--0------|
A|---------|---------|---------|---------|
E|---------|---------|---------|---------|

e|---------|---------|--0---0--|---------|
B|--1---1--|--0---0--|---------|--0---0--|
G|----0----|----0----|----0----|----0----|
D|---------|---------|---------|---------|
A|--3------|--3------|--3------|--3------|
E|---------|---------|---------|---------|

[I'm not sure if this is correct, I have only 8 months playing…]
e|---------|---------|---------|--0--1--3--5--|<-The '5' is at the time
B|--0---0--|--1---1--|--3---3--|--------------|  the chorus starts…
G|----0----|----0----|----0----|--------------|
D|---------|---------|---------|--------------|
A|--3------|--3------|--3------|--3-----------|
E|---------|---------|---------|--------------|

Chorus:
F           G   C                       F
So little time, try to understand that I'm
Dm                             G                   Em7                     A
Trying to make a move just to stay in the game, I try to stay awake and remember my name
      Dm                        G
But everybody's changing and I don't feel the same…

End:

e|---------|---------|
B|--1---1--|--0---0--| x2
G|----0----|----0----|
D|---------|---------|
A|--3------|--3------|
E|---------|---------|

    Dm                       G                      C
Oh! Everybody's changing and I don't feel the same…

-------------------------------------------------------------------------------

That's it… I hope this tab to be helpful, I did my best, please rate, comment…
Ah… and mail me if you wanna comment or ask anything: 'j053montenegro@yahoo.es'
(it's a zero in j053), by the way, I live in Guatemala, although it's full of
violence… corruption, and bad stuff, I'm happy to be here and alive…

GOD bl3s5 u… j:053[d:]montNgro
	
Viva el Brithish Piano Rock!
Tap to rate this tab
# A B C D E F G H I J K L M N O P Q R S T U V W X Y Z