Song name
# A B C D E F G H I J K L M N O P Q R S T U V W X Y Z

Keaton Henson - Lying To You tab

Capo 5

The fingerpicking pattern is: thumb and first finger, thumb, first finger, thumb, and so on.
Keaton adds a variety of small flourishes throughout the song and intro, but this 
tab just has the basic pattern.
Based off of this performance: http://www.youtube.com/watch?v=NrQp8xhLuAA

Verse

  C               F               C               Am      G        
E-----------------------------------------------------------------|
B-----1---1-----------1-------1-------1-------1-------1-------3---|
G-0-0---0-----0---2-2---2-2-2---2-0-0---0-0-0---0-2-2---2-0-0---0-|
D-----------2---2-------------------------------------------------|
A-3-------3-----------------------3-------3-------0---------------|
E-----------------1-------1-------------------------------3-------|

                          C               F                        
E-----------------------------------------------------------------|
B-----3-------3-------3-------1---1-----------1-------1-------1---|
G-0-0---0-0-0---0-0-0---0-0-0---0-----0---2-2---2-2-2---2-2-2---2-|
D-----------------------------------2---2-------------------------|
A-------------------------3-------3-----------------------0-------|
E-3-------3-------3-----------------------1-------1---------------|

          Am      G       F               Am      G       C        
E-----------------------------------------------------------------|
B-----1-------1-------1-------1-------1-------1-------3-------1---|
G-2-2---2-2-2---2-0-0---0---2---2---2---2-2-2---2-0-0---0-0-0---0-|
D-------------------------3-------3-------------------------------|
A-0-------0---------------0-------0-------0---------------3-------|
E-----------------3-------------------------------3---------------|


E-------------------------|
B-----1-------1-------1---|
G-0-0---0-0-0---0-0-0---0-|
D-------------------------|
A-3-------3-------3-------|
E-------------------------|


Chorus

  F       C       G       Am      F       C       G                
E-----------------------------------------------------------------|
B-----1-------1-------1-------1-------1-------1-------3-----------|
G-2-2---2-0-0---0-0-0---0-2-2---2-2-2---2-0-0---0-0-0---0---------|
D-3-------------------------------3-------------------------------|
A---------3---------------0---------------3---------------2-------|
E-----------------3-------------------------------3---------------|

  F       C       G       Am                              F        
E-----3-----------------------------------------------------------|
B-------------1-------1-------1-------1-------1---------------1---|
G-2-2---2-0-0---0-0-0---0-2-2---2-2-2---2-2-2---2-----------2---2-|
D-3-------------------------------------------------------3-------|
A---------3---------------0-------0-------0-------0---------------|
E-----------------3---------------------------------------1-------|

  G       Am              F       G       C                        
E-----------------------------------------------------------------|
B-----1-------1-------1-------1-------1-------1-------1-----1-----|
G---0---0---2---2---2---2---2---2---0---0---0---0---0---0---------|
D-0-------2-------2-------3-------0---------------2---------------|
A---------0-------0-----------------------3---------------3-------|
E-3-----------------------1-------3-------------------------------|
Tap to rate this tab
# A B C D E F G H I J K L M N O P Q R S T U V W X Y Z