Song name
# A B C D E F G H I J K L M N O P Q R S T U V W X Y Z

Keaton Henson - To Your Health tab

To Your Health by Keaton Henson
Tab by Bau Freitas

Standard Tuning.
Verse/Chorus

----------------------------------------------------------------------|
----------------------------------------------------------------------|
10-----14-----9-----7-----10------------------------------------------|
-------15----10-----8------8------------------------------------------|
-8--------------------------------------------------------------------|
10-----13-----8-----6-----10------------------------------------------|

2nd part with the added notes.


--------------------------------------------------------|
-10---13-----5h6--/8-8----/10--10-----------------------|
-10---14-----7-------9---------10-----------------------|
--------------------------------------------------------|
--------------------------------------------------------|
-10---13-----6-------8---------10-----------------------|
Tap to rate this tab
# A B C D E F G H I J K L M N O P Q R S T U V W X Y Z