Song name
# A B C D E F G H I J K L M N O P Q R S T U V W X Y Z

Keaton Henson - You tab

For intro, use verse, but play G#m three times instead of once
Slide when switching chords

Verse:

    E             E             E             F#            G#m               F#
E|----------------------------------------------------------------------------------------|
B|----------------------------------------------------------------------------------------|
G|----------------------------------------------------------------------------------------|
D|--6-------------6-------------6-------------8-------------9-----------------8-----------|
A|--------7-------------7-------------7-------------9---------------11--------------9-----|
E|--7--7-----7----7--7-----7----7--7-----7----9--9-----9----11--11------11----9--9-----9--|

    E             E             E             D#m           E             E
E|-------------------------------------------------------------------------------------|
B|-------------------------------------------------------------------------------------|
G|-------------------------------------------------------------------------------------|
D|--6-------------6-------------6-------------4-------------6-------------6------------|
A|--------7-------------7-------------7-------------6-------------7-------------7------|
E|--7--7-----7----7--7-----7----7--7-----7----6--6-----6----7--7-----7----7--7-----7---|

x3, then

    F#            F#            F#            D#m           E             E
E|--------------------------------------------------------------------------------------|
B|--------------------------------------------------------------------------------------|
G|--------------------------------------------------------------------------------------|
D|--8-------------8-------------8-------------4-------------6-------------6-------------|
A|--------9-------------9-------------9-------------6-------------7-------------7-------|
E|--9--9-----9----9--9-----9----9--9-----9----6--6-----6----7--7-----7----7--7-----7----|

    E             F#            G#m               G#m               G#m
E|-----------------------------------------------------------------------------------|
B|-----------------------------------------------------------------------------------|
G|-----------------------------------------------------------------------------------|
D|--6-------------8-------------9-----------------9-----------------9----------------|
A|--------7-------------9---------------11----------------11----------------11-------|
E|--7--7-----7----9--9-----9----11--11------11----11--11------11----11--11------11---|...

x1

Repeat verse



Bridge:

    G#m           G#m            G#m             D#m           E             E
E|---------------------------------------------------------------------------------------|
B|---------------------------------------------------------------------------------------|
G|---------------------------------------------------------------------------------------|
D|--9-------------9--------------9---------------4-------------6-------------6-----------|
A|--------11-------------11-------------11-------------6-------------7-------------7-----|
E|--11-11----11---11--11----11---11--11----11----6--6-----6----7--7-----7----7--7-----7--|

    E             D#m           E             E             E             F#
E|-------------------------------------------------------------------------------------|
B|-------------------------------------------------------------------------------------|
G|-------------------------------------------------------------------------------------|
D|--6-------------4-------------6-------------6-------------6-------------8------------|
A|--------7-------------6-------------7-------------7-------------7-------------9------|
E|--7--7-----7----6--6-----6----7--7-----7----7--7-----7----7--7-----7----9--9-----9---|

x2

Then repeat Verse, the last verse is a little shorter, listen to the song



Outro:

While he sings "Just live..." switch between D#m and E (x3) then,

E|-----------------------|
B|-----------------------|
G|-----------------------|
D|--6/8------------8/9---|
A|---------9-------------|
E|--7/9-------9----9/11--|

Thanks! Let me know if there are any issues!
Tap to rate this tab
# A B C D E F G H I J K L M N O P Q R S T U V W X Y Z