Song name
# A B C D E F G H I J K L M N O P Q R S T U V W X Y Z

Keaton Simons - Without Your Skin tab

Help us improve GuitareTab! Take a short survey!
Note: The words under the tabs do NOT go with the rhythms. They're just there so 
that you know which part of the song the tabs go to.

Here's a video of me playing the song:

http://www.youtube.com/watch?v=EUOQdSF2-9I

I'm probably not playing the same rhythms that are written below, but you can strum however you want. These probably aren't right anyways.



Capo on fret 2

Intro:
e|-------------------------x---x--|--------3---3-3---3-2-0------------|
B|---------0-----------3-3-x-3-x-3|--------3---3-3---------0h3p0-0h3p0|
G|---------0-----------2-2-x-0-x-0|--------0---0-0--------------------|
D|---------4-----------0-0-x-0-x-0|--------0---0-0--------------------|
A|---------2-----------0-0-x-0-x-0|--------2---2-2--------------------|
E|-0---------------2-------x---x--|3---3---3---3-3--------------------|
   1 e & a 2 e & a 3 e & a 4 e & a 1 e & a 2 e & a 3 e & a 4   e &   a 

e|-------------------------x---x--|--------3---3-3---3---3-3---3--|
B|---------0-----0-----3-3-x-3-x-3|--------3---3-3---3---3-3---3--|
G|---------0-----0-----2-2-x-0-x-0|--------0---0-0---0---0-0---0--|
D|---------4-----4-----0-0-x-0-x-0|--------0---0-0---0---0-0---0--|
A|---------2-----2-----0-0-x-0-x-0|--------2---2-2---2---2-2---2--|
E|-0---0-----------2-------x---x--|3---3---3---3-3---3---3-3---3--|
   1 e & a 2 e & a 3 e & a 4 e & a 1 e & a 2 e & a 3 e & a 4 e & a 


Verse:
e|---------3-----2-2-2-x-2-2-2-x-0|----------------x-1-1---1---1-0|
B|---------3-----0-0-0-x-0-0-0-x-0|0---0---0---0-0-x-1-1---1---1-0|
G|---------0-----2-2-2-x-2-2-2-x-0|0---0---0---0-0-x-2-2---2---2-0|
D|---------0-----1-1-1-x-1-1-1-x-0|2---2---2---2-2-x-3-3---3---3-0|
A|---------2-----2-2-2-x-2-2-2-x--|2---2---2---2-2-x-3-3---3---3--|
E|-3---3---3-----------x-------x--|----------------x-1-1---1---1--|
   1 e & a 2 e & a 3 e & a 4 e & a 1 e & a 2 e & a 3 e & a 4 e & a

   Listen closely...
   In my mind...

e|-----------------x-2-2---2---2-0|------------------------x---x--|
B|-0---0---0---0-0-x-0-0---0---0-0|--------0-----0-----3-3-x-3-x-0|
G|-0---0---0---0-0-x-2-2---2---2-0|--------0-----0-----2-2-x-0-x-0| 2x
D|-2---2---2---2-2-x-1-1---1---1-0|--------4-----4-----0-0-x-0-x-0|
A|-2---2---2---2-2-x-2-2---2---2--|--------2-----2-----0-0-x-0-x-0|
E|-----------------x--------------|0---0-----------2-------x---x--|
   1 e & a 2 e & a 3 e & a 4 e & a 1 e & a 2 e & a 3 e & a 4 e & a

   All the pretty...
   but I'm caught...

e|---------3-----2-2-2-x-2-2-0-x-0|
B|---------3-----0-0-0-x-0-0-0-x-0|
G|---------0-----2-2-2-x-2-2-2-x-0|
D|---------0-----1-1-1-x-1-1-1-x-0|
A|---------2-----2-2-2-x-2-2-2-x--|
E|-3---3---3-----------x-------x--|
   1 e & a 2 e & a 3 e & a 4 e & a


Chorus:
e|-0---0---0---0-0-0---0---0---0-0|3---3---3---3-3-x-2-2---2---2-0|
B|-0---0---0---0-0-1---1---1---1-0|3---3---3---3-3-x-3-3---3---3-0|
G|-0---0---0---0-0-0---0---0---0-0|0---0---0---0-0-x-2-2---2---2-0| 2x
D|-2---2---2---2-0-2---2---2---2-0|0---0---0---0-0-x-0-0---0---0-0|
A|-2---2---2---2---3---3---3---3--|2---2---2---2-2-x-0-0---0---0--|
E|-0---0---0---0---0---0---0---0--|3---3---3---3-3-x-2-2---2---2--|
   1 e & a 2 e & a 3 e & a 4 e & a 1 e & a 2 e & a 3 e & a 4 e & a
  
   I don't leave...


e|-3-3---3-x---3-------3---3---3-3|3-2-3---3---3-3---3---3-3-3---0|
B|-3-3---3-x---3-------3---3---3-3|3-2-3---3---3-3---3---3-3-3---3|
G|-0-0---0-x---0-------0---0---0-0|0-0-0---0---0-0---0---0-0-0---0|
D|-0h2---2-x---2-------2---2---2-0|0-0-0---0---0-0---0---0-0-0---0|
A|-3-3---3-x---3-------3---3---3--|0h2-2---2---3-3---3---3-3-2----|
E|---------x----------------------|3-3-3---3---3-3---3---3-3-3----|
   1 e & a 2 e & a 3 e & a 4 e & a 1 e & a 2 e & a 3 e & a 4 e & a

   On the outside...



e|-2---2---2---2-2---2---2-2-2---2|----------------x---x-------x--|
B|-3---3---3---3-3---3---3-3-3---3|--0-0---0---0-0-x-0-x-0-0-0-x-0|
G|-2---2---2---2-2---2---2-2-2---2|--0-0---0---0-0-x-0-x-0-0-0-x-0|
D|-0---0---0---0-0---0---0-0-0---0|--4-4---4---4-4-x-4-x-4-4-4-x-4|
A|-0---0---0---0-0---0---0-0-0---0|--2-2---2---2-2-x-2-x-2-2-2-x-2|
E|-2---2---2---2-2---2---2-2-2---2|----------------x---x-------x--|
   1 e & a 2 e & a 3 e & a 4 e & a 1 e & a 2 e & a 3 e & a 4 e & a

   Baby you're bound...



e|-3---3---3---3-3---3---3-3-3---3|3---3---3---3-3---3---3-3-3---0|
B|-3---3---3---3-3---3---3-3-3---3|3---3---3---3-3---3---3-3-3---0|
G|-0---0---0---0-0---0---0-0-0---0|0---0---0---0-0---0---0-0-0---0|
D|-2---2---2---2-2---2---2-2-2---0|0---0---0---0-0---0---0-0-0---0|
A|-3---3---3---3-3---3---3-3-3----|2---2---2---2-2---2---2-2-2----|
E|--------------------------------|3---3---3---3-3---3---3-3-3----|
   1 e & a 2 e & a 3 e & a 4 e & a 1 e & a 2 e & a 3 e & a 4 e & a

   Without your skin, without your skin


e|-2------------------------------|
B|-0------------------------------|
G|-2------------------------------|
D|-1------------------------------|
A|-2------------------------------|
E|--------------------------------|
   1 e & a 2 e & a 3 e & a 4 e & a
   
   Without your skin I'm naked


Bridge:
e|-0-0-0-0-0----------------------|-------------------------------|
B|-1-1-1-1-1----------------------|0---0---0---0-0---0---0-0-0---0|
G|-2-2-2-2-2----------------------|0---0---0---0-0---0---0-0-0---0|
D|-2-2-2-2-2----------------------|4---4---4---4-4---4---4-4-4---4|
A|-0-0-0-0-0----------------------|2---2---2---2-2---2---2-2-2---2|
E|-0-0-0-0-0----------------------|-------------------------------|
   1 e & a 2 e & a 3 e & a 4 e & a 1 e & a 2 e & a 3 e & a 4 e & a

   You make it sound so easy


e|-0h0-0-0-0---0-0---0---0-0-0---0|-------------------------------|
B|-1h1-1-1-1---1-1---1---1-1-1---1|0---0---0---0-0----------------|
G|-2h2-2-2-2---2-2---2---2-2-2---2|0---0---0---0-0----------------|
D|-2h2-2-2-2---2-2---2---2-2-2---2|4---4---4---4-4---2p0----------|
A|-0-0-0-0-0---0-0---0---0-0-0---0|2---2---2---2-2-------3p2p0----|
E|-0-0-0-0-0---0-0---0---0-0-0---0|----------------------------3p0|
   1 e & a 2 e & a 3 e & a 4 e & a 1 e & a 2 e & a 3 e & a 4 e & a

   You make them all so proud


e|-0h0-0---0---0-0-0---0---0---0-0|0---0---0---0-0-x---x----------|
B|-1h1-1---1---1-1-1---1---1---1-1|1---1---1---1-0-x-4-x-4-4-4-4-4|
G|-2h2-2---2---2-2-0---0---0---0-0|2---2---2---2-0-x-2-x-2-2-2-2-2|
D|-2h2-2---2---2---2---2---2---2-0|0---0---0---0-0-x-1-x-1-1-1-1-1|
A|-0-0-0---0---0---3---3---3---3--|0---0---0---0---x-2-x-2-2-2-2-2|
E|-0-0-0---0---0---3---3---3---3--|2---2---2---2---x--------------|
   1 e & a 2 e & a 3 e & a 4 e & a 1 e & a 2 e & a 3 e & a 4 e & a

   But when it comes to leavin' baby


e|-x---x-----------x---x----------|2---2---2---2-2---2---2-2-2-2-2|
B|-x-4-x-4-4-4-4-4-x-4-x-4-4-4-4-4|0---0---0---0-0---0---0-0-0-0-0|
G|-x-2-x-2-2-2-2-2-x-2-x-2-2-2-2-2|2---2---2---2-2---2---2-2-2-2-2|
D|-x-1-x-1-1-1-1-1-x-1-x-1-1-1-1-1|1---1---1---1-1---1---1-1-1-1-1|
A|-x-2-x-2-2-2-2-2-x-2-x-2-2-2-2-2|2---2---2---2-2---2---2-2-2-2-2|
E|-x---------------x--------------|-------------------------------|
   1 e & a 2 e & a 3 e & a 4 e & a 1 e & a 2 e & a 3 e & a 4 e & a

   I'd rather stick around




Lyrics:

Listen closely, or youll never hear me whisper
All the pretty things Im scared to say out loud
In my mind I know all I can do is kiss you
But Im caught between the curtain and the crowd

And I dont leave cause Im afraid to be alone
But it doesnt even matter now youre gone
On the outside I seem fine, when you look into my eyes
Baby youre bound to see me shakin

Without your skin
Without your skin
Without your skin Im naked

Oohh

Theres a picture in my bedroom by the window
And a suitcase just outside my closet door
I dont know if I should run away or tiptoe
But I feel like I cant be here anymore

And I dont leave cause Im afraid to be alone
But it doesnt even matter now youre gone
On the outside I seem fine, when you look into my eyes
Baby youre bound to see me shakin

Without your skin
Without your skin
Without your skin Im naked

Oohh

You make it sound so easy
To make them all so proud
But when it comes to leavin baby
Id rather stick around, oh

And I dont leave cause Im afraid to be alone
But it doesnt really matter now youre gone
On the outside I seem fine, when you look into my eyes
Baby youre bound to see me shakin

Without your skin
Without your skin
Without your skin Im naked


Without your skin
Without your skin
Without your skin Im naked



Without your skin Im naked
Related for Without Your Skin tab